Sloppy Meateaters - Escape Chords & Tabs

 

Escape Chords & Tabs

Sloppy Meateaters Chords & Tabs

Version: 1 Type: Tab 0 ratings
1 star 2 stars 3 stars 4 stars 5 stars
comments

Escape Tab

   
-------------------------------------------------------------------------------
			   ESCAPE - Sloppy Meateaters
-------------------------------------------------------------------------------
Tabbed by: strungout777
Email: manuel_ramones4life@gmx.at

Tuning: e B G D A e

Intro:
e|--------------------|
B|--------------------|
G|-66666666------4444-|
D|-66666666-2222-4444-| 3x
A|-44444444-2222-2222-|
E|----------0000------|

e|-------------------|
B|-------------------|
G|-22222222-44444444-|
D|-22222222-44444444-|
A|-00000000-22222222-|
E|-------------------|

Pre-Verse:
e|---------------------------------|
B|---------------------------------|
G|---------------------------------|
D|-666-666-666-666-666-666-666-666-|
A|-444-444-444-444-444-444-444-444-|
E|---------------------------------|
   xx  xx  xx  xx  xx  xx  xx  xx   

Verse:
e|-----------------------------------------------------------------|
B|-----------------------------------------------------------------|
G|-----------------------------------------------------------------|
D|-666-666-666-666-666-666-666-666-222-222-222-222-444-444-444-444-|
A|-444-444-444-444-444-444-444-444-000-000-000-000-222-222-222-222-|
E|-----------------------------------------------------------------|
   xx  xx  xx  xx  xx  xx  xx  xx  xx  xx  xx  xx  xx  xx  xx  xx

e|---------------------------------------------------------------|
B|---------------------------------------------------------------|
G|---------------------------------------------------------------|
D|-666-666-666-666-666-666-666-666-222-222-222-222-444444-444444-|
A|-444-444-444-444-444-444-444-444-000-000-000-000-222222-222222-|
E|---------------------------------------------------------------|
   xx  xx  xx  xx  xx  xx  xx  xx  xx  xx  xx  xx  xxxxxx    

e|--------------------------------|
B|--------------------------------|
G|-99-999-999-999-999-999-999-999-|
D|--------------------------------|
A|-77-777-777-777-777-777-777-777-|
E|--------------------------------|
[ Tab from: http://www.guitartabs.cc/tabs/s/sloppy_meateaters/escape_tab.html ]
e|-----------------------------------------------------------------|
B|-----------------------------------------------------------------|
G|-----------------------------------------------------------------|
D|-666-666-666-666-666-666-666-666-222-222-222-222-444-444-444-444-|
A|-444-444-444-444-444-444-444-444-000-000-000-000-222-222-222-222-|
E|-----------------------------------------------------------------|
   xx  xx  xx  xx  xx  xx  xx  xx  xx  xx  xx  xx  xx  xx  xx  xx
e|----------------------------------------------------|
B|----------------------------------------------------|
G|----------------------------------------------------|
D|-666-666-666-666-444-444-444-444-222-222-222-222-44-|
A|-444-444-444-444-222-222-222-222-000-000-000-000-22-|
E|----------------------------------------------------|
   xx  xx  xx  xx  xx  xx  xx  xx  xx  xx  xx  xx  

Pre-Chorus:
e|-------------------------------|
B|-------------------------------|
G|-22-222-222-222-44-444-444-444-|
D|-22-222-222-222-44-444-444-444-|
A|-00-000-000-000-22-222-222-222-|
E|-------------------------------|

Chorus:
e|--------------------|
B|--------------------|
G|-66666666------4444-|
D|-66666666-2222-4444-| 3x
A|-44444444-2222-2222-|
E|----------0000------|

e|-------------------|
B|-------------------|
G|-22222222-44444444-|
D|-22222222-44444444-|
A|-00000000-22222222-|
E|-------------------|

Solo:
e|-999-1111-1212-|
B|-999--9-9--9-9-|
G|---------------|
D|---------------| 8x
A|---------------|
E|---------------|

e|-------------------------------------------------------------------------------|
B|-9999-7777-----------9999-7777-----------99999999-77777777---------------------|
G|-----------9999-8888-----------9999-8888-------------------99999999-88888888-9~|
D|-------------------------------------------------------------------------------|
A|-----------------------------------------------------------------------------7~|
E|-------------------------------------------------------------------------------|

Bridge:
e|---------|
B|---------|
G|-6-6-8-9-|
D|---------| 16x 
A|---------|
E|---------|
   x x x x

End On:
e|----|
B|----|
G|-44-|
D|-44-|
A|-22-|
E|----|

Chorus:
e|--------------------|
B|--------------------|
G|---------------4444-|
D|----------2222-4444-|
A|----------2222-2222-|
E|----------0000------|

e|--------------------|
B|--------------------|
G|-66666666------4444-|
D|-66666666-2222-4444-| 2x
A|-44444444-2222-2222-|
E|----------0000------|

e|-------------------|
B|-------------------|
G|-22222222-44444444-|
D|-22222222-44444444-|
A|-00000000-22222222-|
E|-------------------|

Outro:
e|--------------------|
B|--------------------|
G|-66666666-2222-4444-|
D|-66666666-2222-4444-| 4x
A|-44444444-0000-2222-|
E|--------------------|

e|----|
B|----|
G|-66-|
D|-66-|
A|-44-|
E|----|



| /  slide up
| \  slide down
| h  hammer-on
| p  pull-off
| ~  vibrato
| +  harmonic
| x  Mute note
===============================================================================
Comments