Sloan - The Other Man Chords & Tabs

 

The Other Man Chords & Tabs

Sloan Chords & Tabs

Version: 1 Type: Tab 0 ratings
1 star 2 stars 3 stars 4 stars 5 stars
comments

The Other Man Tab

   
#----------------------------------PLEASE NOTE---------------------------------#
#This file is the author's own work and represents their interpretation of the #
#song. You may only use this file for private study, scholarship, or research. #
#------------------------------------------------------------------------------##


Sloan - The Other Man


        C#m/F#               Badd11 ??              F#m ??
      x x 4 6 5 x          7 9 9 8 0 0        x 9 11 11 10 x
			or 7 9 9 8 0 x

Gtr I (E A D G B E) - 'Guitar 1'

   4/4
    Gtr I
                                             >
    E E E E E Q  E   +E  Q  Q  E E E  6x E E H.
||---------------4-|-(4)-5--7---------||-----------|
||o-----5---5-7----|-------------5---o||-----5-----|
||----6---6-6--(6)-|-----------6---6--||---6-------|
||--4--------------|------------------||-4---------|
||o----------------|-----------------o||-----------|
||-----------------|------------------||-----------|


  Wx5          H..       E   +E  Q  Q  E E E
|------------|-----------4-|-(4)-5--7--------|
|------------|-------------|-------------5---|
|------------|-------------|-----------6---6-|
|------------|-------------|-----------------|
|------------|-------------|-----------------|
|------------|-------------|-----------------|


      >
  E E H.        W          H..       E   +E  Q  Q  E E E
|-------------|----------|-----------4-|-(4)-5--7--------|
|-----5-------|----------|-------------|-------------5---|
|---6---------|----------|-------------|-----------6---6-|
|-4-----------|----------|-------------|-----------------|
|-------------|----------|-------------|-----------------|
|-------------|----------|-------------|-----------------|

[ Tab from: http://www.guitartabs.cc/tabs/s/sloan/the_other_man_tab.html ]
      >                      <
  E E H.        W     W      E E E E E E E E
|-------------|-----|------|-0-0-0-0-0-0-0-0-*|
|-----5-------|-----|------|-0-0-0-0-0-0-0-0-*|
|---6---------|-----|------|-8-8-8-8-8-8-8-8-*|
|-4-----------|-----|------|-9-9-9-9-9-9-9-9-*|
|-------------|-----|------|-9-9-9-9-9-9-9-9-*|
|-------------|-----|------|-7-7-7-7-7-7-7-7-*|


Duration Legend
---------------
W - whole; H - half; Q - quarter; E - 8th; S - 16th; T - 32nd; X - 64th; a - acciaccatura
+ - note tied to previous; . - note dotted; .. - note double dotted
Uncapitalized letters represent notes that are staccato (1/2 duration)
Irregular groupings are notated above the duration line
Duration letters will always appear directly above the note/fret number it represents the
duration for.  Duration letters with no fret number below them represent rests.  Multi-
bar rests are notated in the form Wxn, where n is the number of bars to rest for.  Low
melody durations appear below the staff

Tablature Legend
----------------
 h   - hammer-on
 p   - pull-off
 b   - bend
 pb  - pre-bend
 r   - bend release (if no number after the r, then release immediately)
 /\  - slide into or out of (from/to "nowhere")
 s   - legato slide
 S   - shift slide
  - natural harmonic
[n]  - artificial harmonic
n(n) - tapped harmonic
 ~   - vibrato
 tr  - trill
 T   - tap
 TP  - trem. picking
 PM  - palm muting
\n/  - tremolo bar dip; n = amount to dip
 \n  - tremolo bar down
 n/  - tremolo bar up
/n\  - tremolo bar inverted dip
 =   - hold bend; also acts as connecting device for hammers/pulls
 <>  - volume swell (louder/softer)
 x   - on rhythm slash represents muted slash
 o   - on rhythm slash represents single note slash

Misc Legend
-----------
 |  - bar
||  - double bar
||o - repeat start
o|| - repeat end
*|  - double bar (ending)
 :  - bar (freetime)
 $  - Segno
 &  - Coda
Tempo markers -  = BPM(8/16=s8/s16), where s8 = swing 8ths, s16 = swing 16ths
Comments