Sloan - The Good In Everyone Chords & Tabs

 

The Good In Everyone Chords & Tabs

Sloan Chords & Tabs

Version: 2 Type: Bass Tab 0 ratings
1 star 2 stars 3 stars 4 stars 5 stars
comments

The Good In Everyone Bass Tab

Song Title: The Good in Everyone
Artist: Sloan
----------------------------------------------

SLOAN
"The Good In Everyone"
INTRO
G|-------------------------------------------------------
D|-------------------------------------------------------REPEAT
A|-5---5---3---333---------------------------------------
E|---5---5---3-------------------------------------------

VERSE 1
G|-------------------------------------------------------
D|-------------------------------------------------------
A|-2-2-2-2--0-0-0----------------------------------------
E|-------------------------------------------------------
[ Tab from: http://www.guitartabs.cc/tabs/s/sloan/the_good_in_everyone_btab_ver_2.html ]
CHORUS
G|-------------------------------------------------------
D|-------------------------------------------------------
A|-----------6-6-6-6-6-6---------4-4-4-4-4-4-------------
E|-6-6-6-6-6-----------4-4-4-4-4-------------------------

VERSE 2
G|-------------------------------------------------------
D|-------------------------------------------------------
A|-2-2-2--0-0-0------------------------------------------
E|-------------------------------------------------------
Verse 2 has a different beat that verse 1....listen to the song

1996 MCA/Murderrecords

Tabbed by: Paul Hillier (GrUnGeR)
Email: cornell@istar.ca
Comments