Sloan - Money City Maniacs Chords & Tabs

 

Money City Maniacs Chords & Tabs

Sloan Chords & Tabs

Version: 1 Type: Tab 0 ratings
1 star 2 stars 3 stars 4 stars 5 stars
comments

Money City Maniacs Tab

   
e---------------------------
b---------------------------
g---------------------------
d----7-99-----9-------------
a--9-5-77---9-7-99---9---9--
e--7--------7---77---7---7--

e-----------
b-----------
g-----------
d--7---9999-
a9-5-7-7777- repeat
e7---5------
[ Tab from: http://www.guitartabs.cc/tabs/s/sloan/money_city_maniacs_tab.html ]
Comments