Sloan - If It Feels Good Do It Chords & Tabs

 

If It Feels Good Do It Chords & Tabs

Sloan Chords & Tabs

Version: 5 Type: Tab 0 ratings
1 star 2 stars 3 stars 4 stars 5 stars
comments

If It Feels Good Do It Tab

part right after the intro
---------------------------------------------------------------------------------------------------------------------------6-6-4-6--6--4-6-6-4--------------------------------------
---6-6-4-6--6--4-6-6-4--4-2---------------------------------
---4-4-2-4--4--2-4-4-2--4-2---------------------------------
------------------------2-0---------------------------------

[ Tab from: http://www.guitartabs.cc/tabs/s/sloan/if_it_feels_good_do_it_tab_ver_5.html ]
verse and chorus
---------------------------------------------------------------------------------------------------------------------------66666666666---------44444444444--------------------------
---66666666666--2-2-2--44444444444--4-2---------------------
---44444444444--2-2-2--22222222222--4-2---------------------
----------------0-0-0---------------2-0---------------------


pre chorus
---------------------------------------------------------------------------------------------------------------------------6---------------4----------------------------------------
---6-------2-------4-------4--------------------------------
---4-------2-------2-------2--------------------------------
-----------0---------------2--------------------------------

If anyone could email me the intro at beerboy56@hotmail.com that would be great thanks.
Comments