Slipknot - Welcome Chords & Tabs

 

Welcome Chords & Tabs

Slipknot Chords & Tabs

Version: 2 Type: Tab

Welcome Tab

Intro:

-----------------------------------------------------------------|
-----------------------------------------------------------------|
-----------------------------------------------------------------|
-----------------------------------------------------------------|
-----------------------------0---------------0---0--2-----1----0-|
---0--0--0--0---1--1--1--1---0---------------0---0--2-----1----0-|

-------------------------------------------------------------------|
-------------------------------------------------------------------|
-------------------------------------------------------------------|
-------------------------------------------------------------------|
----2----1----0----------------0-----------------------------------|
----2----1----0----------------0-------0--0--1--1--1--1--1--0------|
                                    P.M----------------------------|

-----------------------------------------------------------------------------|
-----------------------------------------------------------------------------|
-----------------------------------------------------------------------------|
-----------------------------------------------------------------------------|
--------------------------0--------------------2---1---0---------------------|
-0--0--0--0--1--1--1--1---0--------------0--0--2---1---0---------------------|
                            P.M----------         P.M------------------------|
-----------------------------------------------------------------------------|
-----------------------------------------------------------------------------|
-----------------------------------------------------------------------------|
-----------------------------------------------------------------------------|
--2--1--0-----------0----------------------0---------------------------------|
--2--1--0-----------0---------0-0-1-1-1-1--0------0--0--4--1--0--0--4--1--0--|

Repeat that last part a few times then this

------------------------------------------------------|
------------------------------------------------------|
------------------------------------------------------|
------------------------------------------------------|
-0---2--1---0--x4-------------------------------------|
-0---2--1---0-----------------------------------------|

----------------------------------------------------------------------------|
----------------------------------------------------------------------------|
----------------------------------------------------------------------------|
----------------------------------------------------------------------------|
----------------------------0----------------2--1--0------------------------|
--0--0--0--0---1--1--1--1---0--------0--0----2--1--0-----0--0--1--1--1--1---|
  P.M--------------------                                P.M----------------|


-------------------------------------------------------------|
-------------------------------------------------------------|
-------------------------------------------------------------|
-------------------------------------------------------------|
-2--1--0-------------------------2---1---0-----------0-------|
-2--1--0---------0--0--1---0-----2---1---0-----------0-------|

-------------------------------------------------------------|
-------------------------------------------------------------|
-------------------------------------------------------------|
-------------------------------------------------------------|
--------------------------0----------------------------------|
----0--0--1--1--1--1--1---0---------0--0---------------------|
 P.M---------------------------------------------------------|
[ Tab from: http://www.guitartabs.cc/tabs/s/slipknot/welcome_tab_ver_2.html ]
FILL
------------------------------------------------------------|
------------------------------------------------------------|
------------------------------------------------------------|
------------------------------------------------------------|
---2---1---0------------------------------------------------|
---2---1---0----------0--0--1--1--0--0----------------------|
                      P.M-----------------------------------|

------------------------------------------------------------------|
------------------------------------------------------------------|
------------------------------------------------------------------|
------------------------------------------------------------------|
-8--8--8--8--8--8--8--8--8------------------------3p2-------------|
-8--8--8--8--8--8--8--8--8------0---0---4p3---0-------------------|
 P.M----------------------      P.M-------------------------------|         P.M


------------------------------------------------------------------------|
------------------------------------------------------------------------|
------------------------------------------------------------------------|
------------------------------------------------------------------------|
------------------------------------------------3p2---------------------|
--0---2p1-------0----6p5------0--0---4p3-----0--------0--2p1---0--6p5---|
  P.M           P.M           P.M-           P.M      P.M      P.M


------------------------------------------------------------------------|
------------------------------------------------------------------------|
--------------------------------5s4-------------------------------------|
----------4s3-------------------5s4---------2s1----------6s5------------|
-0---0----4s3---------------0---3s2----0----2s1-----0----6s5------------|
-0---0----4s3---------------0----------0----2s1-----0----6s5------------|
P.M---                      P.M        P.M          P.M repeat twice

---------------------------------------------------------------------|
---------------------------------------------------------------------|
---------------------------------------------------------------------|
---------------------------------------------------------------------|
--2----1---0---------------0---------------------------------------0-|
--2----1---0---------------0----------------0---0--1---1---1---1---0-|

solo:

17-15-17-15----------------------------------15-17-15-|
-----------15---17-15-17-18-17-15----15-17-18---------|
--------------17------------------17------------------|
------------------------------------------------------|
------------------------------------------------------|
------------------------------------------------------|

-15p12------12-15p12-15p12-------12-15-15p12--------------------------------|
------13--13---------------13--13-------------------------------------------|
--------12-------------------13---------------------------------------------|
----------------------------------------------------------------------------|
----------------------------------------------------------------------------|
----------------------------------------------------------------------------|

--17-15-17-15------------------------------------15-17-15-|
-------------18-17-15---15-17-18-17-15---15-17-18---------|
----------------------17--------------17------------------|
----------------------------------------------------------|
----------------------------------------------------------|
-------------------------------------------------- -------|

-22-17--------17-22-17-21-18---------18----------18-21-18-21-18-|
-------18---18---------------20---20----20----20----------------|
----------19--------------------21---------21-------------------|
----------------------------------------------------------------|
----------------------------------------------------------------|
----------------------------------------------------------------|

-18-15------15-18-15-15-12---------12-15-12---------------|
------17--17---------------14---14----------15~~~~~~~~~~~-|
--------18--------------------15--------------------------|
----------------------------------------------------------|
----------------------------------------------------------|
-------------------------------------------------- -------|

Well thats all i could tab up 2 but the solo was hard enough mine might not be very 
so u might just wanna improvise instead