Slipknot - Wait And Bleed Chords & Tabs

 

Wait And Bleed Chords & Tabs

Slipknot Chords & Tabs

Version: 9 Type: Tab 0 ratings
1 star 2 stars 3 stars 4 stars 5 stars
comments

Wait And Bleed Tab

   
Name: Massetti

Tabs: Transcribed By: Massetti

Artist: Slipknot

Song: Wait & Bleed

Drop "D" Down 1 1/2 Steps Low to High (B,F#,B,E,G#,C#)
.....(These dots mean to bend octaves 1/2 step)
^ (This means to hammer on, pulloff, or both) 
/ (These mean Slide Up) 
\ (These slide down)
P.M...(P.M. with the dots stand for Palm Muting,not bends ) 
~ ( This means vibrato)
Gtr. 1 Jim (4) 
Gtr. 2 Mick(7) 

Intro / 1st, 2nd Chorus
Gtr. 1
C#|-----------------------------------------------------------|
G#|-----------------------------------------------------------|
E |-----------------------------------------------------------| 
B |----0---7---7---1---1---/8---8---0-------------------------|
F#|------------------------/8---------------------------------|
B |--0---0---7---7---1---1----8---8---------------------------|

Gtr. 2 ...........
C#|-----------------------------------------------------------|
G#|-----------------------------------------------------------|
E |-14-1414-14-14-14-14-14-14-14-14-14-14-14-14-14-14---------| 
B |-----------------------------------------------------------|
F#|-12-1212-12-12-12-12-12-12-12-12-12-12-12-12-12-12---------|
B |-----------------------------------------------------------|

Pre-Verse (Done only once throughout song)
Gtr. 1&2
C#|-----------------------------------------------------------|
G#|-----------------------------------------------------------|
E |---^------^---------------^------^-------------^------^----| 
B |-0-1-0--0-1-0-----------0-1-0--0-1-0---------0-1-0--0-1-0--|
F#|-0-1-0--0-1-0-----------0-1-0--0-1-0---------0-1-0--0-1-0--|
B |-0-1-0--0-1-0-----------0-1-0--0-1-0--0-/5\--0-1-0--0-1-0--|
[ Tab from: http://www.guitartabs.cc/tabs/s/slipknot/wait_and_bleed_tab_ver_9.html ]
Verse
Gtr. 1&2 P.M....
C#|-----------------------------------------------------------|
G#|-----------------------------------------------------------|
E |---^------^------------------------------------------------| 
B |-0-1-0--0-1-0--1--4--1-------------------------------------|
F#|-0-1-0--0-1-0--1--4--1-------------------------------------|
B |-0-1-0--0-1-0--1--4--1-------------------------------------|

Intelude (Part 1)
Gtr. 2
C#|-----------------------------------------------------------|
G#|-----------------------------------------------------------|
E |-----------------------------------------------------------| 
B |-----------------------------------------------------------|
F#|---^---12--------------------------------------------------|
B |-12-15----13-0-12~-----------------------------------------| ...........

Interlude (Part 2)
Gtr. 1 & 2
C#|-----------------------------------------------------------|
G#|-----------------------------------------------------------|
E |-------2------^--------------------------------------------| 
B |-0-/3--2--0--1-0-------------------------------------------|
F#|-0-/3--0--0--1-0-------------------------------------------|
B |-0-/3-----0--1-0-------------------------------------------| 

Last Chorus
Gtr. 1
C#|-----------------------------------------------------------|
G#|-----------------------------------------------------------|
E |-----------------------------------------------------------| 
B |-0--0-0--7--7--7--7--1--1--1--1--1--1--1--X--1--1----------|
F#|-0--0-0--7--7--7--7--1--1--1--1--1--1--1--X--1--1----------|
B |-0--0-0--7--7--7--7--1--1--1--1--1--1--1--X--1--1----------| 

Gtr. 2 ..........
C#|-----------------------------------------------------------|
G#|-----------------------------------------------------------|
E |-7--7-7--7--7--7--7--7--7--7--7--7--7--7--7--7--7----------| 
B |-----------------------------------------------------------|
F#|-5--5-5--5--5--5--5--5--5--5--5--5--5--5--5--5--5----------|
B |-----------------------------------------------------------|


This may look easy but it aint so get the rhythem down 1st 
and it will be easy (Wait & Bleed is just one of many cool)
(songs off of "Slipknot" I recommend) 
(you buy it if you haven't already)

Comments