Slipknot - Wait And Bleed Chords & Tabs

 

Wait And Bleed Chords & Tabs

Slipknot Chords & Tabs

Version: 5 Type: Tab 3 ratings
1 star 2 stars 3 stars 4 stars 5 stars
comments

Wait And Bleed Tab

   
Slipknot
Wait & Bleed
Drop B tuning (B,F#,B,E,G#,C#)
 
I know this tab is 110% correct as
i copied it from the official tab book

Intro x4
Guitar 1 
-----------------------------------------------------
-----------------------------------------------------
-----------------------------------------------------
---0----7-----1----8-----7-----------8---------------
----------------------5-------7---6--------8-----8---
-0---7-----1----/8---------7-----------8------8------

Intro x2 come in on guitar 1 after seccond time played
Guitar 2
-----------------------------------------------------
-----------------------------------------------------
-14--14-14-14--14-14-14-15-15-15-15--15-15-15--------
-X---X--X--X---X--X--X--X--X--X--X---X--X--X---------
-12--12-12-12--12-12-12-13-13-13-13--13-13-13--------
-----------------------------------------------------
these two riffs are also the chourus riffs


Riff1
-----------------------------------------------------
-----------------------------------------------------
-----------------------------------------------------
-----------------------------------------------------
------------------------5----------------------------
--0-0-0-----0-0-0---0/6------0-0-0------0-0-0--------
[ Tab from: http://www.guitartabs.cc/tabs/s/slipknot/wait_and_bleed_tab_ver_5.html ]
Verse Riff
-----------------------------------------------------
-----------------------------------------------------
-----------------------------------------------------
----------------pm_______----------------------------
------------------1--4--1----------------------------
--0-0-0-----0-0-0-1--4--1----------------------------

Fill riff
--------------------------------------------------------------
--------------------------------------------------------------
--------------------------------------------------------------
------7--------------------------7----------------------------
--/8----pm____--5br--pm_--5h6--8----pm____--5br---------0-----
----------0--0---------0--------------0--0--------0h1-3---1-0-

Final Chorus
--------------------------------------------------------------
--------------------------------------------------------------
--------------------------------------------------------------
--0-0-0-7-7-7-7-1-1-1-1-1-1-1-1-1-----------------------------
--0-0-0-7-7-7-7-1-1-1-1-1-1-1-1-1-----------------------------
--0-0-0-7-7-7-7-1-1-1-1-1-1-1-1-1-----------------------------
The outro is just the verse riff without the palm muting

~~~~~~~~~~~~~~~~~~~~~~~~~~~~~~~~~~~~~~~~~~~~~~~~~~~~~~~~~~~~~~
Any other slipknot tab requests, email me at 
paytributetoyourking@hotmail.com
Laters, SSK
~~~~~~~~~~~~~~~~~~~~~~~~~~~~~~~~~~~~~~~~~~~~~~~~~~~~~~~~~~~~~~
Comments