Slipknot - Wait And Bleed Chords & Tabs

 

Wait And Bleed Chords & Tabs

Slipknot Chords & Tabs

Version: 2 Type: Tab 0 ratings
1 star 2 stars 3 stars 4 stars 5 stars
comments

Wait And Bleed Tab

   
Wait and Bleed by Slipknot
Tabbed by Jason

Yea I know it's been tabbed a thousand different times...and every one
has the intro/chorus wrong. I have a video of them playing the song
live and i haven't found any tabs that look like what Mick is doing.
This isn't right either but it should be close, if you have the 
OFFICIAL tab (ie. from the Slipknot tab book) please send me the 
correct tab (powerkordz@aol.com)

Tuning: drop B (down one and a half steps and drop D
B F# B E G# C#)
[ Tab from: http://www.guitartabs.cc/tabs/s/slipknot/wait_and_bleed_tab_ver_2.html ]
Intro 1
|-------------------------------------------------------------------|
|-------------------------------------------------------------------|
|-------------------------------------------------------------------|
|---0---0---7---7---1---1---8---8----7---7---0---0---8---8----1---1-|
|-------------------------------------------------------------------|
|-0---0---7---7---1---1---8---8----7---7---0---0---8---8----1---1---|

Intro 2/Chorus
|-----------------|
|-----------------|
|-----------------|
|-0-7-1-8-7-0-8-1-|
|-0-7-1-8-7-0-8-1-|
|-0-7-1-8-7-0-8-1-|play all chords several times

Pre Verse         Verse
|----------------|----------------|
|----------------|----------------|
|----------------|----------------|
|-0-0--0-0-------|-0-0--0-0-------|
|-0-0--0-0----5--|-0-0--0-0-------|
|-0-0--0-0-1/6---|-0-0--0-0-1-4-1-|
                          pm.....

Bridge 1               Bridge 2
|---------------------|---------------|
|---------------------|---------------|
|---------------------|---------------|
|---------------------|-0h1-2-0-1-1p0-|
|--------12-----------|-0h1-0-0-1-1p0-|
|-0h13h15---12-13-12~-|-0h1---0-1-1p0-|

Outro
|----------------|
|----------------|
|----------------|
|-0-0--0-0-1-4-1-|
|-0-0--0-0-1-4-1-|
|-0-0--0-0-1-4-1-|
Comments