Slipknot - Wait And Bleed Chords & Tabs

 

Wait And Bleed Chords & Tabs

Slipknot Chords & Tabs

Version: 1 Type: Bass Tab 0 ratings
1 star 2 stars 3 stars 4 stars 5 stars
comments

Wait And Bleed Bass Tab

Slipknot-Wait and Bleed
Tabbed by Mike Ruizzo   Micycle222@hotmail.com

Tuning--BEADG


I've felt the hate rise up in me...

RIFF #1
G|-------------------------------------------------|
D|-------------------------------------------------|
A|-------------------------------------------------|2X
E|-----2-2-2-----3-3-3-----2-2-2-----3-3-2-3-------|
B|0-0-0-----1-1-1-----0-0-0-----1-1-1--------------|


RIFF #2
G|-------------------------------------------------|
D|-------------------------------------------------|
A|-----9-9-9-----10-10-10-----9-9-9-----10-10-9-10-|2X
E|7-7-7-----8-8-8--------7-7-7-----8-8-8-----------|
B|-------------------------------------------------|

[ Tab from: http://www.guitartabs.cc/tabs/s/slipknot/wait_and_bleed_btab.html ]
RIFF #3
G|----------------------------------------------------------------------|
D|----------------------------------------------------------------------|
A|----------------------------------------------------------------------|
E|----------------------------------------------------------------------|
B|0-0-0---0-0-0---0-0-0---0-0-0---0-0-0---0-0-0---0-0-0---0-0-0-10\1----|


Goodbye...

RIFF #4
G|-----------------------------------------------|
D|-----------------------------------------------|
A|-----------------------------------------------|16X
E|-----------------------------------------------|
B|0-0-0---0-0-0-1-2-1----------------------------|


BACK TO RIFF #1


RIFF #4


RIFF #1


RIFF #5
G|-----------------------------------------------|
D|-----------------------------------------------|
A|-----------------------------------------------|12X
E|-----------------------------------------------|
B|2/7-0-2p0--------------------------------------|


RIFF #6
G|-----------------------------------------------|
D|-----------------------------------------------|
A|-----------------------------------------------|
E|------2-2-2-2----------------------------------|
B|0-0-0---------1-1-1-1-1-1-1-1-1----------------|


RIFF #4 AND END

Comments