Slipknot - Vermillion Part 2 Chords & Tabs

 

Vermillion Part 2 Chords & Tabs

Slipknot Chords & Tabs

Version: 2 Type: Tab 0 ratings
1 star 2 stars 3 stars 4 stars 5 stars
comments

Vermillion Part 2 Tab

   
song title: Vermillion pt. 2
artist: Slipknot

Tabbed by: aznssilver
H=hammer on
P=pull off
X#=play chord # times

tuning:standard

Guitar1
e|-------------------|   \
b|-------------------|    \
g|-------------------|     \  
d|-6-8---------------|      \
a|-----7-66h7p6p0-6-|       \
E|-----------------4-|        \
                               \
Guitar2                         \
e|---|		 |-------------| \
b|---|             |-------------|  \ 
g|-6-|		 |--4------4---|   play during intro and verse
d|-6-|		 |--4----0-4---|  /
a|-4-|		 |--2----0-2---| /
E|-4-|x16 	 |--2x7-0-2-x7|/



Guitar 1 and 2
e|---|\
b|-5-| \
g|-5-|  \
d|-7-|   \
a|-7-|    \
E|-5-|x17  play during the chorus


play guitar2 chords

play verse again

play chorus again

play guitar2 chords 





Guitar1
e|----------------------------------------|
b|---3-2-3-2---3-2-3-2---3-2-3-2---3-2-3-2|
g|----------------------------------------|bridge pt.1 
d|----------------------------------------|
a|----------------------------------------|
E|----------------------------------------|

Guitar2 
e|----------------------------------------|
b|----------------------------------------|
g|-4---------6---------7---------6--------|bridge pt.1
d|----------------------------------------|
a|----------------------------------------|
E|----------------------------------------|

Guitar1
e|----------------------------------------|
b|---3-2-3-2---3-2-3-2---3-2-3-2---3-2-3-2|
g|----------------------------------------|bridge pt.2
d|----------------------------------------|
a|----------------------------------------|
E|----------------------------------------|
[ Tab from: http://www.guitartabs.cc/tabs/s/slipknot/vermillion_part_2_tab_ver_2.html ]
Guitar2 
e|----------------------------------------|
b|---------------------8---------7--------|
g|-4---------6----------------------------|bridge pt.2
d|----------------------------------------|
a|----------------------------------------|
E|----------------------------------------|

Guitar1
e|----------------------------------------|
b|---3-2-3-2---3-2-3-2---3-2-3-2---3-2-3-2|
g|----------------------------------------|bridge pt.3
d|----------------------------------------|
a|----------------------------------------|
E|----------------------------------------|

Guitar2 
e|----------------------------------------|
b|----------------------------------------|
g|-4---------6---------7---------6--------|bridge pt.3
d|----------------------------------------|
a|----------------------------------------|
E|----------------------------------------|
Guitar1
e|---------------------|
b|---3-2-3-2---3-2-3-2-|
g|---------------------|bridge pt.4
d|---------------------|
a|---------------------|
E|---------------------|

Guitar2 
e|---------------------|
b|---------------------|
g|-4---------6---------|bridge pt.4
d|---------------------|
a|---------------------|
E|---------------------|


Solo: violin replaced with guitar
e|--------------------------------|\
b|------------------------------7-| \
g|-4---6-7-0---2---6---4-34-9----|  \
d|--------------------------------|  solo
a|--------------------------------| /
E|--------------------------------|/

Play guitar2 chords under solo

Play guitar2 chords for next verse

Play bridge pt.2 three times

Play bridge pt.4

Play verse 

Guitar arranged for piano:
e|-------------|\
b|-------------| \
g|-------17-16-|  \
d|-13-15-------|  outro
a|-------------| /
E|-0-----------|/
Comments