Slipknot - Vermilion Part 2 Chords & Tabs

 

Vermilion Part 2 Chords & Tabs

Slipknot Chords & Tabs

Version: 8 Type: Tab 0 ratings
1 star 2 stars 3 stars 4 stars 5 stars
comments

Vermilion Part 2 Tab

   
Vermilion part 2
tuning, B F# B E G# C#

NOTE this song is played on the acoustic guitar



|------------------|------------------------|--------------------|-------------------|
|------------------|------------------------|--------------------|-------------------|
|------------------|------------------------|-7-----7--7--7----7-|-7-7--7--7--7-7--0-|
|-12-12---12-12----|----12---12-12-12-12--0-|-x-----x--x--x----x-|-x-x--x--x--x-x--0-|
|-9--9--9--9--9----|-10-9--9-9---9-10--9--0-|-5--5--5--5--5--5-5-|-4-4--4--4--4-4--0-|
|-9-----9-11-11--9-|-9--9--9-----9--9--9----|-0--0--0--0-----0---|---0-----0----0----|
|
|
|
|------------------|------------------------|--------------------|-------------------|
|------------------|------------------------|--------------------|-------------------|
|-4------6---------|------------------------|--------------------|-------------------|
|-------------5----|---(5)-/-4--------------|--------------------|-------------------|
|------------------|------------------------|--------------------|-------------------|
|------------------|------------------------|-0------------------|-------------------|

Play that up there 5 times. 

then he goes "i dont know what to do_____"

"do_____________________________________          When she    makes   me_____
|-------0-----0----|--------------------|-------0------0-----|--0----------------|
|-1-----1-----1----|--1--1--1--1---1----|-1-----1------1-----|--1------1------1--|
|-0-----0----------|--0--0--0--0---0----|-0-----0------0-----|--0------0------0--|
|-2-----2----------|--2--2--2--2---2----|-2---2-----2--------|--2----------2-----|
|-3----------------|--3--3--3--3---3----|-3---3-----3--------|--3---3------3-----|
|------------------|--------------------|--------------------|-------------------|


|---------------------|-----------------------|
|---------------------|-----------------------|
|-7--7--7--7--7--7--7-|----7--7--7---7--7--7--| play all that 4 times then go back to..
|-x--x--x--x--x--x--x-|----x--x--x---x--x--x--|
|-5--5--5--5--5--5--5-|----5--5--5---5--5--5--|
|-0--0--0--0--0--0----|-0--7--7--7---6--6--6--|


|------------------|------------------------|--------------------|-------------------|
|------------------|------------------------|--------------------|-------------------|
|------------------|------------------------|-7-----7--7--7----7-|-7-7--7--7--7-7--0-|
|-12-12---12-12----|----12---12-12-12-12--0-|-x-----x--x--x----x-|-x-x--x--x--x-x--0-|
|-9--9--9--9--9----|-10-9--9-9---9-10--9--0-|-5--5--5--5--5--5-5-|-4-4--4--4--4-4--0-|
|-9-----9-11-11--9-|-9--9--9-----9--9--9----|-0--0--0--0-----0---|---0-----0----0----|
|
|x 3
|
|------------------|------------------------|--------------------|-------------------|
|------------------|------------------------|--------------------|-------------------|
|-4------6---------|------------------------|--------------------|-------------------|
|-------------5----|---(5)-/-4--------------|--------------------|-------------------|
|------------------|------------------------|--------------------|-------------------|
|------------------|------------------------|-0------------------|-------------------|

|---------------------|-----------------------|
|---------------------|-----------------------|
|-7--7--7--7--7--7--7-|----7--7--7---7--7--7--| play all that 2 times then go the chorus which is
|-x--x--x--x--x--x--x-|----x--x--x---x--x--x--|
|-5--5--5--5--5--5--5-|----5--5--5---5--5--5--|
|-0--0--0--0--0--0----|-0--7--7--7---6--6--6--|


Chorus
"wont  let   this   build  up      in  side  of      me"
|-------0----------|---------------0--------|---------0----------|--0----------0-----|
|------------------|--10--------------------|--------------------|-------------------|
|------------10----|-------10---------------|---------------10---|-------10----------|
|-12---------------|------------------------|-12-----------------|-------------------|
|------------------|------------------------|--------------------|-------------------|
|------------------|------------------------|--------------------|-------------------|
[ Tab from: http://www.guitartabs.cc/tabs/s/slipknot/vermilion_part_2_tab_ver_8.html ]
"i wont  let   this   build  up      in  side  of      me"
|-------0----------|---------------0--------|---------0----------|-------------0-----|
|------------------|--10--------------------|-11-----------------|-10----------------|
|------------10----|-------10---------------|---------------10---|-------10----------|
|-12---------------|------------------------|--------------------|-------------------|
|------------------|------------------------|--------------------|-------------------|
|------------------|------------------------|--------------------|-------------------|

play chorus twice then play
this part is played after the last "wont let this build up inside of me"
|------0--------0--|--0---------------------|--------------------|-------------------|
|--6-------6-------|--6---------------------|-3---3---3--3-------|-1---1---1---1--1--|
|--7-------7-------|--7-----9------10-------|-3---3---3--3-------|-0---0---0---0--0--|
|------------------|--------x------x--------|-3---3---3--3-------|-2---2---2---2--2--|
|------------------|--------7------8--------|-1---1---1--1---0---|-3---3---3---3--3--|
|------------------|------------------------|--------------------|-------------------|

play that twice until

"i catch in  my       throat                 choke               torn onto pieces"
|------------------|------------------------|-------------------|-------------------|
|------------------|------------------------|-------------------|-6---6---6---6--6--|
|------------------|-7----6----7-----7------|--7-----6------7---|-7---7---7---7--7--|
|-5--5---5---5--0--|-x----x----x-----x------|--x-----x------x---|-7---7-------7-----|
|-5--5---5---5--0--|-5----4----5-----5------|--5-----4------5---|-5---5-------5-----|
|-5--5---5---5-----|-0----------------------|--0----------------|-------------------|

"    i             wont                    no             i dont want to be thisbut i"
|----------------|------------------------|--------------------|-------------------|
|3--3---3--3--3--|------------------------|--------------------|-6--6---6---6--6---|
|3--3---3--3--3--|-8/--7----5-----7-------|-8/--7---5/---9---7-|-7--7---7---7--7---|
|3--3---3--3--3--|-x--------x-----x-------|-x-------x----x---x-|-7--7---7---7--7---|
|1--1---1--1--1--|-6/--5----3-----5-------|-6/--5---3/---7---5-|-0--0---0---0--0---|
|----------------|-0--------0-----0----0--|-0-------0----0-----|-------------------|


"wont  let   this   build  up      in  side  of      me"
|-------0----------|---------------0--------|---------0----------|--0----------0-----|
|------------------|--10--------------------|--------------------|-------------------|
|------------10----|-------10---------------|---------------10---|-------10----------|
|-12---------------|------------------------|-12-----------------|-------------------|
|------------------|------------------------|--------------------|-------------------|
|------------------|------------------------|--------------------|-------------------|

"i wont  let   this   build  up      in  side  of      me"
|-------0----------|---------------0--------|---------0----------|-------------0-----|
|------------------|--10--------------------|-11-----------------|-10----------------|
|------------10----|-------10---------------|---------------10---|-------10----------|
|-12---------------|------------------------|--------------------|-------------------|
|------------------|------------------------|--------------------|-------------------|
|------------------|------------------------|--------------------|-------------------|
play chorus three 2.5 times

then

|------------------|------------------------|--------------------|-------------------|
|------------------|------------------------|--------------------|-------------------|
|------------------|------------------------|-7-----7--7--7----7-|-7-7--7--7--7-7--0-|
|-12-12---12-12----|----12---12-12-12-12--0-|-x-----x--x--x----x-|-x-x--x--x--x-x--0-|
|-9--9--9--9--9----|-10-9--9-9---9-10--9--0-|-5--5--5--5--5--5-5-|-4-4--4--4--4-4--0-|
|-9-----9-11-11--9-|-9--9--9-----9--9--9----|-0--0--0--0-----0---|---0-----0----0----|
|
|6 times. this is when he keeps saying "she isnt real, i cant make her real"
|
|------------------|------------------------|--------------------|-------------------|
|------------------|------------------------|--------------------|-------------------|
|-4------6---------|------------------------|--------------------|-------------------|
|-------------5----|---(5)-/-4--------------|--------------------|-------------------|
|------------------|------------------------|--------------------|-------------------|
|------------------|------------------------|-0------------------|-------------------|


last part
|----------------------3---|--------2-----------------|
|---------2----------------|--------------------------|
|-4------------------------|--------------------------|
|--------------------------|--------------------------|
|-2------------------------|--------------------------|
|--------------------------|--------------------------|
Comments