Slipknot - Vermilion Part 2 Chords & Tabs

 

Vermilion Part 2 Chords & Tabs

Slipknot Chords & Tabs

Version: 4 Type: Tab 0 ratings
1 star 2 stars 3 stars 4 stars 5 stars
comments

Vermilion Part 2 Tab

E------------------------------------------------------------------|
B------------------------------------------------------------------|
G-1--3--4-----------------------------------------------4/3--------|
D----------2--1--1--2--1-----------2----------2---------4/3--------|
A-------------------------1--------2----------2---------2/1--------|
E----------------------------------0---0-0-0--0--0-0-0-------------|
                                       P.M       P.M

E-----------------------------------|
B-----------------------------------|
G------------------------4/3--------|
D---2----------2---------4/3--------|
A---2----------2---------2/1--------|
E---0---0-0-0--0--0-0-0-------------|
                                       P.M       P.M

P.M= Palm mute
/= Slide
[ Tab from: http://www.guitartabs.cc/tabs/s/slipknot/vermilion_part_2_tab_ver_4.html ]
Comments