Slipknot - Vermilion Chords & Tabs

 

Vermilion Chords & Tabs

Slipknot Chords & Tabs

Version: 2 Type: Bass Tab 0 ratings
1 star 2 stars 3 stars 4 stars 5 stars
comments

Vermilion Bass Tab

   
Band: Slipknot
Song: Vermillion
Tabber: 555_Maggot_666

Tuning is in drop B ( B,E,A,D )

pO= Pull off
/= Slide up
~= Let ring

Intro/Verse
D|--------------------------------------|
A|--------------------------------------|  x8
E|--------------------------------------|
B|-0002225554444444-0000002/33/1111111--|

Post-verse 
"She's the only one that makes me sad!"
D|------------------------|
A|-2----------------------|  x1
E|------------------------|
B|---0-00-0-00-0-00-0-0-0-|

D|----------------|
A|----------------|  x4
E|----------------|
B|-00011100666555-|

Pre-Chorus 
"Hard to say what got my attention..."
D|-------------------------------------|
A|-------------------------------------|  x2
E|-------------------------------------|
B|-1pO-0000--1pO-0000----333333-222222-|

D|---------------------------------------|
A|---------------------------------------|  x2
E|---------------------------------------|
B|-1pO-0000--1pO-0000----3/444444-333333-|

Chorus
D|-------------------------|
A|-------------------------|  x2
E|-3-333-2-2-2-------------|
B|------------0-000-3-333--|

D|-------------------------|
A|-------------------------| x1
E|-3-333-2-2-2-------------|
B|------------0-000-3-2-1--|

D|-------------------------|
A|-------------------------|
E|-3-333-2-2-2-------------|
B|-----------0-000-3-333---|

Bridge
D|----------------|
A|----------------|  x10
E|----------------|
B|-1pO-0000-------|

Guitar solo
D|------------------------------------------------------|
A|------------------------------------------------------|  x4 
E|------------------------------------------------------|
B|-1pO-0000000000-1pO-0000000000-1pO-0000000000-444-666-|
[ Tab from: http://www.guitartabs.cc/tabs/s/slipknot/vermilion_btab_ver_2.html ]
D|---------|
A|---------|  x3
E|---------|
B|-444-666-|

Pre-Chorus
D|-------------------------------------|
A|-------------------------------------|  x2
E|-------------------------------------|
B|-1pO-0000--1pO-0000----333333-222222-|

D|---------------------------------------|
A|---------------------------------------|  x2
E|---------------------------------------|
B|-1pO-0000--1pO-0000----3/444444-333333-|

Chorus                      --------------------------  
D|-------------------------|                          |
A|-------------------------|  x2                      | 
E|-3-333-2-2-2-------------|                          | 
B|------------0-000-3-333--|                          |  
                                                      |
D|-------------------------|                          |     
A|-------------------------| x1                       |---- All x2
E|-3-333-2-2-2-------------|                          |
B|------------0-000-3-2-1--|                          |
                                                      |
D|-------------------------|                          | 
A|-------------------------|                          |
E|-3-333-2-2-2-------------|                          |  
B|-----------0-000-3-333---|                          | 
                            --------------------------

Outro
D|-------------------------------------------------|
A|-------------------------------------------------|
E|-------------------------------------------------|
B|-888888-7-6-5-666666-5-4-3-777777-6-5-4-00000000-|

D|-------------------------------------------------|
A|-------------------------------------------------|
E|-------------------------------------------------|
B|-888888-7-6-5-666666-5-4-3-777777-6-5-4-0~~~~~~~~|
Comments