Slipknot - Three Nil Chords & Tabs

 

Three Nil Chords & Tabs

Slipknot Chords & Tabs

Version: 3 Type: Tab 0 ratings
1 star 2 stars 3 stars 4 stars 5 stars
comments

Three Nil Tab

   
please rate
Song, Three nil
Artist, Slipknot
Tuning, low to high   B F# B E G# C#
by aleksey

ok this tab is in chronological order (duh) so if u play as it is u have the whole
song, i didnt do the thing where its like (play riff4a 5 times) cause that just
confusing. since its so long it helps to print it out. every bar thing is one measure,
if and empty space after the tabbing,like here | ignore it.                              
                                   |
                     |--tremelo picking-|                           \|/
|-------------------------------------------------------------------------|
|-------------------------------------------------------------------------|
|-------------------------------------------------------------------------|
|-13/----1/-----------------------------------------------X8--------------|
|-13/----1/-0--3--2/-5-5-5-5-5-6-6-6-6-6----------------------------------|
|-13/----1/-0--3--2/------------------------------------------------------|
pm          .  .  .

then.         |--tremelo picking---|
|-------------------------------------------------------------------------|
|-------------------------------------------------------------------------|
|-------------------------------------------------------------------------|
|-1/----------5-5-5-5---6-6-6-6-6-6-----------------------X8--------------|
|-1/-0--3--2/---------5---------------------------------------------------|
|-1/-0--3--2/-------------------------------------------------------------|
pm   .  .  .


|-------------------------------------------------------------------------|
|-------------------------------------------------------------------------|
|-----------------------------------------------------X8------------------|
|-------------------------------------------------------------------------|
|----4-3-----1-0-----4-3-----1-0--------1-0-------------------------------|
|-0--4-3--0--1-0--0--4-3--0--1-0--0--0--1-0-------------------------------|
pm.       .       .       .       .  .

then once    (this is one measure)
|----------------------------------------------|
|----------------------------------------------|
|----------------------------------------------|
|-------------------------------------------X2-|
|----------------------------------------------|
|-0--4/3--0--1/0--0-3--6/3--0--4--7/4--0--3----|

singing starts in this measure.
|---------------------------------------------------------------------------------|
|---------------------------------------------------------------------------------|
|---------------------------------------------------------------------------------|
|-------------------------------------------------X8------------------------------|
|----4/3-----1/0------------------------------------------------------------------|
|-0--4/3--0--1/0-0--3-6-0-4-7-4-0-3-----------------------------------------------|
pm                  . . . . . . . .


|-------------------------------------------------------------------------------|
|-------------Who am i?---------------------------Where am i going?-------------|
|-------------------------------------------------------------------------------|
|-------------------------------------------------------------------------------|
|----4/3/-1-0-------------------------------------------------------------------|
|-0--4/3/-1-0------------0/1--0---0/1--0--4/3--1--0--0/1---0-1/0--0---0-4/3-1---|

|-------------------------------------------------------------------------|
|-------------------------------------------------------------------------|
|-------------------------------------------------------------------------|
|---------------------------------------------------------------------X1--|
|----4/3-----1/0-----4/3-----1/0--------1/0-----4/3-----1/0---------------|
|-0--4/3--0--1/0--0--4/3--0--1/0--0--0--1/0--0--4/3--0--1/0--0--1--0------|
pm.       .       .       .       .  .       .       .       .  .


|-------------------------------------------------------------------------|
|-------------------------------------------------------------------------|
|-------------------------------------------------------------------------|
|-------------------------------------------------------------------------|
|-----22223333---------5555-6666----------22223333--------55556666--------|
|-2222--------33335555----------6666/-2222--------33335555--------6666----|

|-------------------------------------------------------------------------|
|-------------------------------------------------------------------------|
|-------------------------------------------------------------------------|
|-----------------------------------------------------------------9/------|
|-----55556666---------88889999----------5555-6666-----------8888-9/------|
|-5555--------6666-8888--------9999/-5555---------66666888888-------------|

|-------------------------------------------------------------------------|
|-------------------------------------------------------------------------|
|-------------------------------------------------------------------------|
|-----4--5-5----------7---8---------------------x2------------------------|
|-\2--2--3-3--3---5---5---6---6-------------------------------------------|
|-\2----------3---3-----------6-------------------------------------------|
pm    .  . .  .   .   .   .   .
[ Tab from: http://www.guitartabs.cc/tabs/s/slipknot/three_nil_tab_ver_3.html ]
|-------------------------------------------------------------------------|
|-------------------------------------------------------------------------|
|-------------------------------------------------------------------------|
|------7---8----------10---11---------x2----------------------------------|
|--5---5---6---6---8--8----9---9------------------------------------------|
|--5-----------6---8-----------9------------------------------------------|
pm..............................
|-------------------------------------------------------------------------|
|-------------------------------------------------------------------------|
|-------------------------------------------------------------------------|
|---------------------------------------------------------x3--------------|
|----4-3-----1-0-----4-3-----1-0--------1-0-------------------------------|
|-0--4-3--0--1-0--0--4-3--0--1-0--0--0--1-0-------------------------------|
pm.       .       .       .       .  .
-------------------------------------------------------------------------|
-------------------------------------------------------------------------|
-------------------------------------------------------------------------|
-------------------------------------------------------------------------|
--0--0------0--0----------------5-------5/6------------------------------|
--0--0------0--0-------0--2--3--5-----3-5/6------------------------------|
 pm...      ....       .......

|-------------------------------------------------------------------------|
|-------------------------------------------------------------------------|
|-----------------------------------------------------x7------------------|
|-------------------------------------------------------------------------|
|-------------------------------------------------------------------------|
|-0--4--3----1/-0--0--4--3----1/-0--0--0--1/-0----------------------------|
pm.......          .......          ....

|-------------------------------------------------------------------------|
|-------------------------------------------------------------------------|
|-------------------------------------------------------------------------|
|-------------------------------------------------------------------------|
|-------------------------------------------------------------------------|
|-0--4--3----1/-0--0--0--1--0---------------------------------------------|
pm.......          ...........

|-------------------------------------------------------------------------|
|-------------------------------------------------------------------------|
|-------------------------------------------------------------------------|
|-------------------------------------------------------------------------|
|-----22223333---------5555-6666----------22223333--------55556666--------|
|-2222--------33335555----------6666/-2222--------33335555--------6666----|

|-------------------------------------------------------------------------|
|-------------------------------------------------------------------------|
|-------------------------------------------------------------------------|
|-----------------------------------------------------------------9/------|
|-----55556666---------88889999----------5555-6666-----------8888-9/------|
|-5555--------6666-8888--------9999/-5555---------66666888888-------------|

|-------------------------------------------------------------------------|
|-------------------------------------------------------------------------|
|-------------------------------------------------------------------------|
|-----4--5-5----------7---8---------------------x2------------------------|
|-\2--2--3-3--3---5---5---6---6-------------------------------------------|
|-\2----------3---3-----------6-------------------------------------------|
pm    .  . .  .   .   .   .   .

|-------------------------------------------------------------------------|
|-------------------------------------------------------------------------|
|-------------------------------------------------------------------------|
|------7---8----------10---11---------x2----------------------------------|
|--5---5---6---6---8--8----9---9------------------------------------------|
|--5-----------6---8-----------9------------------------------------------|

|--------------------------------------------------------------------------|
|--------------------------------------------------------------------------|
|--------------------------------------------------------------------------|
|---------------------------------------------------2-2-2-3-3-3-3-3-5-5-6-6|x4
|-3--5--5-5--5-5-5--5-5-3-3-3--5--5-5--5-5-5-5-5-5--2-2-2-2-3-3-3-3-5-5-6-6|
|-0--0--0-0--0-0-0--0-0-0-0-0--0--0-0--0-0-0-0-0-0--2-2-2-2-3-3-3-3-5-5-6-6|


|-------------------------------------------------------------------------|
|-------------------------------------------------------------------------|
|-------------------------------------------------------------------------|
|-13/----1/-----------------------------------------------X8--------------|
|-13/----1/-0--3--2/-5-5-5-5-5-6-6-6-6-6----------------------------------|
|-13/----1/-0--3--2/------------------------------------------------------|


|-------------------------------------------------------------------------|
|-------------------------------------------------------------------------|
|-------------------------------------------------------------------------|
|-------------3-------5-------6---------------X8--------------------------|
|-1--------0--3---0---5---0---6-------------------------------------------|
|-1----4---0--3---0---5---0---6-------------------------------------------|
pm..........      .       .


|-------------------------------------------------------------------------|
|-------------------------------------------------------------------------|
|-------------------------------------------------------------------------|
|-1-------0---3-------5--------------------------X8-----------------------|
|-1-------0---3---0---5---------------------------------------------------|
|-1----4--0---3---0---5---3--5--6-----------------------------------------|
pm                ...............

|--------------------------------------------------------------------------|
|--------------------------------------------------------------------------|
|--------------------------------------------------------------------------|
|---------------------------------------------------2-2-2-3-3-3-3-3-5-5-6-6|X4
|-3--5--5-5--5-5-5--5-5-3-3-3--5--5-5--5-5-5-5-5-5--2-2-2-2-3-3-3-3-5-5-6-6|
|-0--0--0-0--0-0-0--0-0-0-0-0--0--0-0--0-0-0-0-0-0--2-2-2-2-3-3-3-3-5-5-6-6|

|--------------------------------------------------------------------------|
|-----------these are all  tens, elevens, twelves and thirteens------------|
|--------------------------------------------------------------------------|
|-----999910101010------------1212121213131313-----------x8----------------|
|-7777------------888810101010----------------11111111---------------------|
|--------------------------------------------------------------------------|

|--------------------------------------------------------------------------|
|--------------------------------------------------------------------------|
|--------------------------------------------------------------------------|
|-1/-----------------------------------1/----------------------------------|
|-1/--0----4----1----5----2----6-------1/-----0----4----3----5----6--------|
|-1/--0----4----1----5----2----6-------1/-----0----4----3----5----6--------|
pm    ...........................             ......................

|--------------------------------------------------------------------------|
|--------------------------------------------------------------------------|
|--------------------------------------------------------------------------|
|--1/----------------------------------------------------------------------|
|--1/---0----4----1----5----2----6-----------------------------------------|
|--1/---0----4----1----5----2----6-----------------------------------------|
pm      ...........................
Comments