Slipknot - Three Nil Chords & Tabs

 

Three Nil Chords & Tabs

Slipknot Chords & Tabs

Version: 2 Type: Tab 0 ratings
1 star 2 stars 3 stars 4 stars 5 stars
comments

Three Nil Tab

   
#----------------------------------PLEASE NOTE---------------------------------#
#This file is the author's own work and represents their interpretation of the #
#song. You may only use this file for private study, scholarship, or research. #
#------------------------------------------------------------------------------##

                                    THREE NIL
                             As recorded by Slipknot
              (From the 2004 Album VOL. 3 (THE SUBLIMINAL VERSES))

Words and Music by Slipknot
Transcribed by Travis Lausch

Gtr I (B F# B E G# C#) - 'Untitled'
Gtr II (B F# B E G# C#) - 'Untitled'
Gtr III (B F# B E G# C#) - 'Untitled'

 Intro
  Moderately Q=120
 4/4
          Gtr I
                  PM--|  TPTPTP
  H.      E E     E E E  E S E S E E  8x
|-------------||----------------------||
|-------------||o--------------------o||
|-------------||----------------------||
|---------1s6-||--0-3-2----------1s6--||
|---------1s6-||o-0-3-2-/5-0-6-0-1s6-o||
|---------1s6-||--0-3-2----------1s6--||
|
|         Gtr II
| W               W                   8x
|-------------||----------------------||
|-------------||o--------------------o||
|-------------||----------------------||
|-------------||----------------------||
|-------------||o--------------------o||
|-------------||----------------------||


    PM--|  TPTPTP              PM    PM    PM    PM    PM|
    E E E  E S E S E E  8x     S S S S S S S S S S S S S S S S   8x
||----------------------||-||------------------------------------||
||o--------------------o||-||o----------------------------------o||
||----------------------||-||------------------------------------||
||--0-3-2----------1s6--||-||------------------------------------||
||o-0-3-2-/5-0-6-0-1s6-o||-||o-0-4p3-0-1p0-0-4p3-0-1p0-0-0-1p0--o||
||--0-3-2----------1s6--||-||--0-4p3-0-1p0-0-4p3-0-1p0-0-0-1p0---||
|
|   PM--|  TPTPTP
|   E E E  E S E S E E  8x     W                                 8x
||----------------------||-||------------------------------------||
||o--------------------o||-||o----------------------------------o||
||----------------------||-||------------------------------------||
||--0-3-2-/5-0-6-0-1s6--||-||------------------------------------||
||o-0-3-2----------1s6-o||-||o----------------------------------o||
||--0-3-2----------1s6--||-||------------------------------------||


                                    Gtrs I, II
  S S S S S S S S S S S S S S S S   S S S S S S S S S S S S S S S S
|---------------------------------|---------------------------------|
|---------------------------------|---------------------------------|
|---------------------------------|---------------------------------|
|---------------------------------|---------------------------------|
|---------------------------------|---------------------------------|
|-0-4p3-0-1p0-0-3h6p3-0-4h7p4-0-3-|-0-4p3-0-1p0-0-3h6p3-0-4h7p4-0-3-|


   Verses
                PM----------------|               PM----------------|
    S S S S S S S S S S S S S S S S   S S S S S S S S S S S S S S S S  4x
||----------------------------------|----------------------------------||
||o---------------------------------|---------------------------------o||
||----------------------------------|----------------------------------||
||----------------------------------|----------------------------------||
||o-0-4S3-0-1p0-0-3-6-3-0-4-7-4-0-3-|-0-4S3-0-1p0-0-3-6-3-0-4-7-4-0-3-o||
||--0-4S3-0-1p0-0-3-6-3-0-4-7-4-0-3-|-0-4S3-0-1p0-0-3-6-3-0-4-7-4-0-3--||


 Pre-Chorus
  S S S S e E E S S e S S   S S S S e S S e S S e S S
|-------------------------|---------------------------|
|-------------------------|---------------------------|
|-------------------------|---------------------------|
|-------------------------|---------------------------|
|-0-4-3-1-0-----0-1-0-0-1-|-0-4-3-1-0-0-1-0-0-1-0-0-1-|
|-0-4-3-1-0-----0-1-0-0-1-|-0-4-3-1-0-0-1-0-0-1-0-0-1-|


  PM    PM    PM    PM    PM|       PM    PM    PM
  S S S S S S S S S S S S S S S S   S S S S S S S S e E Q
|---------------------------------|-------------------------|
|---------------------------------|-------------------------|
|---------------------------------|-------------------------|
|---------------------------------|-------------------------|
|-0-4p3-0-1p0-0-4p3-0-1p0-0-0-1p0-|-0-4p3-0-1p0-0-1-0-------|
|-0-4p3-0-1p0-0-4p3-0-1p0-0-0-1p0-|-0-4p3-0-1p0-0-1-0-------|


 Chorus
  Double Time Q=240
  $
  TP TP TP TP   TP TP TP TP   TP TP TP TP   TP TP TP TP
  Q  Q  Q  Q    Q  Q  Q  Q    Q  Q  Q  Q    Q  Q  Q  Q
|-------------|-------------|-------------|--------------|
|-------------|-------------|-------------|--------------|
|-------------|-------------|-------------|--------------|
|-------------|-------------|-------------|--------------|
|----2--3-----|----5--6--2--|----2--3-----|----5--6--2---|
|-2--------3--|-5-----------|-2--------3--|-5------------|


  TP TP TP TP   TP TP TP TP   TP TP TP TP   TP TP TP TP
  Q  Q  Q  Q    Q  Q  Q  Q    Q  Q  Q  Q    Q  Q  Q  Q
|-------------|-------------|-------------|--------------|
|-------------|-------------|-------------|--------------|
|-------------|-------------|-------------|--------------|
|-------------|-------------|-------------|--------------|
|----5--6-----|----8--9--5--|----5--6-----|----8--9--5---|
|-5--------6--|-8-----------|-5--------6--|-8------------|


  PM-------------------------------------------------|
  Q  Q  Q  Q    Q  Q  Q  Q    Q  Q  Q  Q    Q  Q  Q  Q
|-------------|-------------|-------------|--------------|
|-------------|-------------|-------------|--------------|
|-------------|-------------|-------------|--------------|
|----4--5-----|----7--8--4--|----4--5-----|----7--8--4---|
|-2--2--3--3--|-5--5--6--2--|-2--2--3--3--|-5--5--6--2---|
|-2--------3--|-5-----------|-2--------3--|-5------------|


                                                    To Coda
  PM-----------------------------------------------------|
  Q  Q  Q  Q    Q   Q   Q  Q    Q  Q  Q  Q    Q   Q   Q  Q
|-------------|---------------|-------------|----------------|
|-------------|---------------|-------------|----------------|
|-------------|---------------|-------------|----------------|
|----7--8-----|----10--11--7--|----7--8-----|----10--11--7---|
|-5--5--6--6--|-8---8---9--5--|-5--5--6--6--|-8---8---9--5---|
|-5--------6--|-8-------------|-5--------6--|-8--------------|


  A Tempo Q=120
  PM    PM    PM    PM    PM|       PM    PM    PM    PM    PM|
  S S S S S S S S S S S S S S S S   S S S S S S S S S S S S S S S S
|---------------------------------|---------------------------------|
|---------------------------------|---------------------------------|
|---------------------------------|---------------------------------|
|---------------------------------|---------------------------------|
|-0-4p3-0-1p0-0-4p3-0-1p0-0-0-1p0-|-0-4p3-0-1p0-0-4p3-0-1p0-0-0-1p0-|
|-0-4p3-0-1p0-0-4p3-0-1p0-0-0-1p0-|-0-4p3-0-1p0-0-4p3-0-1p0-0-0-1p0-|


  PM    PM    PM    PM    PM|
  S S S S S S S S S S S S S S S S   S S E S S E S S S S +S  S E
|---------------------------------|-----------------------------|
|---------------------------------|-----------------------------|
|---------------------------------|-----------------------------|
|---------------------------------|-----------------------------|
|-0-4p3-0-1p0-0-4p3-0-1p0-0-0-1p0-|-0-0---0-0---0-0-0-5-(5)-0-6-|
|-0-4p3-0-1p0-0-4p3-0-1p0-0-0-1p0-|-0-0---0-0---0-0-0-5-(5)-0-6-|


   Verse 2
    PM--|     PM--|     PM|       PM--|     PM--|     PM|
    S S E S S S S E S S S S S S   S S E S S S S E S S S S S S  3x
||------------------------------|------------------------------||
||o-----------------------------|-----------------------------o||
||------------------------------|------------------------------||
||------------------------------|------------------------------||
||o-0-4-3-1p0-0-4-3-1p0-0-0-1p0-|-0-4-3-1p0-0-4-3-1p0-0-0-1p0-o||
||--0-4-3-1p0-0-4-3-1p0-0-0-1p0-|-0-4-3-1p0-0-4-3-1p0-0-0-1p0--||


                             D.S. al Coda
  PM--|     PM--|     PM|       PM--|
  S S E S S S S E S S S S S S   S S e H.
|-----------------------------|--------------|
|-----------------------------|--------------|
|-----------------------------|--------------|
|-----------------------------|--------------|
|-0-4-3-1p0-0-4-3-1p0-0-0-1p0-|-0-4-3--------|
|-0-4-3-1p0-0-4-3-1p0-0-0-1p0-|-0-4-3--------|


   Bridge
    Slightly Faster Q=135
    &
    Gtr I
     E E S E S S E S S E S    E E S E S S E S S E S
||-------------------------|------------------------|
||o------------------------|------------------------|
||-------------------------|------------------------|
||-------------------------|------------------------|
||o------------------------|------------------------|
||--10-0-0-0-0-0-0-0-0-0-0-|-10-0-0-0-0-0-0-0-0-0-0-|
|
|   Gtr III
|    E E S E S S E S S E S    E E S E S S E S S E S
||-------------------------|------------------------|
||o------------------------|------------------------|
||-------------------------|------------------------|
||-------------------------|------------------------|
||o------------------------|------------------------|
||--10-0-0-0-0-0-0-0-0-0-0-|-10-0-0-0-0-0-0-0-0-0-0-|


  E E S E S S E S S E S   E E S E S   S  E S S E S
|-----------------------|-----------------------------||
|-----------------------|----------------------------o||
|-----------------------|-----------------------------||
|-----------------------|-----------------------------||
|-----------------------|----------------------------o||
|-2S3-3-3-3-3-3-3-3-3-3-|-5S6-6-6-6---6--6-6-6-6-6----||
|
| E E S E S S E S S E S   E E S E S   H
|-----------------------|-----------!<4>--------------||
|-----------------------|-----------!<4>-------------o||
|-----------------------|-----------!<4>--------------||
|-----------------------|-----------!<4>--------------||
|-----------------------|----------------------------o||
|-2S3-3-3-3-3-3-3-3-3-3-|-5S6-6-6-6-------------------||


    $$
     E E S E S S E S S E S    E E S E S S E S S  E  S
||-------------------------|--------------------------|
||o------------------------|--------------------------|
||-------------------------|--------------------------|
||-------------------------|--------------------------|
||o------------------------|--------------------------|
||--10-0-0-0-0-0-0-0-0-0-0-|-10-0-0-0-0-0-0-0-0--0--0-|
|
|    E E S E S S E S S E S    E E S E S S E S S  E  S
||-------------------------|--------------------------|
||o------------------------|--------------------------|
||-------------5S7-7-7S5-5-|------------5S7-7-7S10-10-|
||-------------x---x-x---x-|------------x---x-x-----x-|
||o------------3S5-5-5S3-3-|------------3S5-5-5S=8--8-|
||--10-0-0-0-0-------------|-10-0-0-0-0---------------|

[ Tab from: http://www.guitartabs.cc/tabs/s/slipknot/three_nil_tab_ver_2.html ]
                                       To Dbl. Coda
  E E S E S S E S S E S   E E S E S   S  E S S E S
|-----------------------|-----------------------------||
|-----------------------|----------------------------o||
|-----------------------|-----------------------------||
|-----------------------|-----------------------------||
|-----------------------|----------------------------o||
|-2S3-3-3-3-3-3-3-3-3-3-|-5S6-6-6-6---6--6-6-6-6-6----||
|
| E E S E S S E S S E S   E E S E S   H
|-----------------------|-----------!<4>--------------||
|-----------------------|-----------!<4>-------------o||
|-----------------------|-----------!<4>--------------||
|-----------------------|-----------!<4>--------------||
|-----------------------|----------------------------o||
|-2S3-3-3-3-3-3-3-3-3-3-|-5S6-6-6-6-------------------||


 Interlude
  A Tempo Q=120
      PM--|  TPTPTP        PM--|  TPTPTP
  E E E E E  E S E S   E E E E E  E S E S
|--------------------|--------------------|
|--------------------|--------------------|
|--------------------|--------------------|
|-1s6-0-3-2----------|-1s6-0-3-2----------|
|-1s6-0-3-2-/5-0-6-0-|-1s6-0-3-2-/5-0-6-0-|
|-1s6-0-3-2----------|-1s6-0-3-2----------|
|
|     PM                   PM
| E E E E H            E E E E H
|--------------------|--------------------|
|--------------------|--------------------|
|--------------------|--------------------|
|-1s6-0--------------|-1s6-0--------------|
|-1s6-0--------------|-1s6-0--------------|
|-1s6-0--------------|-1s6-0--------------|


      PM--|  TPTPTP        PM--|  TPTPTP
  E E E E E  E S E S   E E E E E  E S E S
|--------------------|----------------------|
|--------------------|----------------------|
|--------------------|----------------------|
|-1s6-0-3-2----------|-1s6-0-3-2------------|
|-1s6-0-3-2-/5-0-6-0-|-1s6-0-3-2-/5-0-6-0---|
|-1s6-0-3-2----------|-1s6-0-3-2------------|
|
|     PM                   PM
| E E E E H            E E E E H
|--------------------|----------------------|
|--------------------|----------------------|
|--------------------|----------------------|
|-1s6-0--------------|-1s6-0----------------|
|-1s6-0--------------|-1s6-0----------------|
|-1s6-0--------------|-1s6-0----------------|


  Gtrs I, III
      PM--|  TPTPTP        PM--|  TPTPTP
  E E E E E  E S E S   E E E E E  E S E S
|--------------------|--------------------|
|--------------------|--------------------|
|--------------------|--------------------|
|-1s6-0-3-2----------|-1s6-0-3-2----------|
|-1s6-0-3-2-/5-0-6-0-|-1s6-0-3-2-/5-0-6-0-|
|-1s6-0-3-2----------|-1s6-0-3-2----------|


      PM--|  TPTPTP        PM--|  TPTPTP
  E E E E E  E S E S   E E E E E  E S S E
|--------------------|----------------------|
|--------------------|----------------------|
|--------------------|----------------------|
|-1s6-0-3-2----------|-1s6-0-3-2------------|
|-1s6-0-3-2-/5-0-6-0-|-1s6-0-3-2-/5-0-6-----|
|-1s6-0-3-2----------|-1s6-0-3-2------------|


 2/4    4/4
  H      E +S  S E E E E S S +E
|------|-------------------------|
|------|-------------------------|
|------|-------------------------|
|------|-------------------------|
|------|-3-(3)-4-0-3-0-5-0-6-(6)-|
|------|-3-(3)-4-0-3-0-5-0-6-(6)-|


  E +S  S E E E E S S +E    E +S  S E E E E S S +E
|-------------------------|--------------------------|
|-------------------------|--------------------------|
|-------------------------|--------------------------|
|-------------------------|--------------------------|
|-3-(3)-4-0-3-0-5-0-6-(6)-|-3-(3)-4-0-3-0-5-0-6-(6)--|
|-3-(3)-4-0-3-0-5-0-6-(6)-|-3-(3)-4-0-3-0-5-0-6-(6)--|


  E +S  S E E E E S S +E
|-------------------------||
|-------------------------||
|-------------------------||
|-------------------------||
|-3-(3)-4-0-3-0-5-0-6-(6)-||
|-3-(3)-4-0-3-0-5-0-6-(6)-||


 Bridge
  E +S  S E E E E S S +E    E +S  S E E E E S S +E
|-------------------------|--------------------------|
|-------------------------|--------------------------|
|-------------------------|--------------------------|
|-------------------------|--------------------------|
|-3-(3)-4-0-3-0-5-0-6-(6)-|-3-(3)-4-0-3-0-5-0-6-(6)--|
|-3-(3)-4-0-3-0-5-0-6-(6)-|-3-(3)-4-0-3-0-5-0-6-(6)--|


  E +S  S E E E E S S +E    E +S  S E E E E S S +E
|-------------------------|-------------------------|
|-------------------------|-------------------------|
|-------------------------|-------------------------|
|-------------------------|-------------------------|
|-3-(3)-4-0-3-0-5-0-6-(6)-|-3-(3)-4-0-3-0-5-0-6-(6)-|
|-3-(3)-4-0-3-0-5-0-6-(6)-|-3-(3)-4-0-3-0-5-0-6-(6)-|


                    PM--|
                    |-3-|
    E +S  S E E E E E E E   3x
||--------------------------||
||o------------------------o||
||--------------------------||
||--------------------------||
||o-3-(3)-4-0-3-0-5-0-5-6--o||
||--3-(3)-4-0-3-0-5-0-5-6---||


              |-3-| |-3-|
  E +S  S E E E E E E E E
|-------------------------|
|-------------------------|
|-------------7-7-7-8-6-6-|
|-------------x-x-x-x-x-x-|
|-3-(3)-4-0-3-5-5-5-6-4-4-|
|-3-(3)-4-0-3-------------|


                                 D.S.S. al Dbl. Coda
                    PM--|
                    |-3-|                 |-3-| |-3-|
    E +S  S E E E E E E E  3x E +S  S E E E E E E E E
||-------------------------||-------------------------|
||o-----------------------o||-------------------------|
||-------------------------||-------------7-7-7-8-6-6-|
||-------------------------||-------------x-x-x-x-x-x-|
||o-3-(3)-4-0-3-0-5-0-5-6-o||-3-(3)-4-0-3-5-5-5-6-4-4-|
||--3-(3)-4-0-3-0-5-0-5-6--||-3-(3)-4-0-3-------------|


    Slightly Faster Q=135
    &&
    Gtr I
     E E S E S S E S S E S    E E S E S S E S S  E  S
||-------------------------|--------------------------|
||o------------------------|--------------------------|
||-------------------------|--------------------------|
||-------------------------|--------------------------|
||o------------------------|--------------------------|
||--10-0-0-0-0-0-0-0-0-0-0-|-10-0-0-0-0-0-0-0-0--0--0-|
|
|   Gtr III
|    E E S E S S E S S E S    E E S E S S E S S  E  S
||-------------------------|--------------------------|
||o------------------------|--------------------------|
||-------------5S7-7-7S5-5-|------------5S7-7-7S10-10-|
||-------------x---x-x---x-|------------x---x-x-----x-|
||o------------3S5-5-5S3-3-|------------3S5-5-5S=8--8-|
||--10-0-0-0-0-------------|-10-0-0-0-0---------------|


  E E S E S S E S S E S   E E S E S   S  E S S E S
|-----------------------|-----------------------------||
|-----------------------|----------------------------o||
|-----------------------|-----------------------------||
|-----------------------|-----------------------------||
|-----------------------|----------------------------o||
|-2S3-3-3-3-3-3-3-3-3-3-|-5S6-6-6-6---6--6-6-6-6-6----||
|
| E E S E S S E S S E S   E E S E S   H
|-----------------------|-----------!<4>--------------||
|-----------------------|-----------!<4>-------------o||
|-----------------------|-----------!<4>--------------||
|-----------------------|-----------!<4>--------------||
|-----------------------|----------------------------o||
|-2S3-3-3-3-3-3-3-3-3-3-|-5S6-6-6-6-------------------||


 Outro
  Double Time Q=240
  Gtrs I, II
  TP TP TP TP   TP TP TP TP   TP TP TP TP   TP TP TP TP
  Q  Q  Q  Q    Q  Q  Q  Q    Q  Q  Q  Q    Q  Q  Q  Q
|-------------|-------------|-------------|--------------|
|-------------|-------------|-------------|--------------|
|-------------|-------------|-------------|--------------|
|-------------|-------------|-------------|--------------|
|----2--3-----|----5--6--2--|----2--3-----|----5--6--2---|
|-2--------3--|-5-----------|-2--------3--|-5------------|


  TP TP TP TP   TP TP TP TP   TP TP TP TP   TP TP TP TP
  Q  Q  Q  Q    Q  Q  Q  Q    Q  Q  Q  Q    Q  Q  Q  Q
|-------------|-------------|-------------|--------------|
|-------------|-------------|-------------|--------------|
|-------------|-------------|-------------|--------------|
|-------------|-------------|-------------|--------------|
|----2--3-----|----5--6--2--|----2--3-----|----5--6--2---|
|-2--------3--|-5-----------|-2--------3--|-5------------|


    Gtr I
    TP TP  TP TP    TP TP TP TP   TP TP  TP TP    TP TP TP TP
    Q  Q   Q  Q     Q  Q  Q  Q    Q  Q   Q  Q     Q  Q  Q  Q
||---------------|--------------|--------------|---------------||
||o--------------|--------------|--------------|--------------o||
||---------------|-----7--8-----|--------------|-----7--8------||
||-----9--10-----|-----------9--|----9--10-----|-----------9---||
||o-7---------8--|-10-----------|-7---------8--|-10-----------o||
||---------------|--------------|--------------|---------------||
|
|   Gtr III
|   TP TP  TP TP    TP TP TP TP   TP TP  TP TP    TP TP TP TP
|   Q  Q   Q  Q     Q  Q  Q  Q    Q  Q   Q  Q     Q  Q  Q  Q
||---------------|--------------|--------------|---------------||
||o--------------|--------------|--------------|--------------o||
||---------------|-----3--4-----|--------------|-----3--4------||
||-----5---7-----|-----------6--|----5---7-----|-----------6---||
||o-4---------5--|--6-----------|-4---------5--|--6-----------o||
||---------------|--------------|--------------|---------------||


  A Tempo Q=120
                                 |-3-|
  E E E E E E S S E   Q  E E E E E E E
|-------------------|------------------|
|-------------------|------------------|
|-------------------|------------------|
|-1S6-0-3-2-5-0-6---|----1S6-0-3-0-5-6-|
|-1S6-0-3-2-5-0-6---|----1S6-0-3-0-5-6-|
|-1S6-0-3-2-5-0-6---|----1S6-0-3-0-5-6-|


                                 |-3-|
  E E E E E E S S E   Q  E E E E E E E
|-------------------|--------------------|
|-------------------|--------------------|
|-------------------|--------------------|
|-1S6-0-3-2-5-0-6---|----1S6-0-3-0-5-6---|
|-1S6-0-3-2-5-0-6---|----1S6-0-3-0-5-6---|
|-1S6-0-3-2-5-0-6---|----1S6-0-3-0-5-6---|


 4/4
                                 |-3-|
  E E E E E E S S E   Q  E E E E E E E   E E E E E E S S E
|-------------------|------------------|-------------------*|
|-------------------|------------------|-------------------*|
|-------------------|------------------|-------------------*|
|-1S6-0-3-2-5-0-6---|----1S6-0-3-0-5-6-|-1S6-0-3-2-5-0-6---*|
|-1S6-0-3-2-5-0-6---|----1S6-0-3-0-5-6-|-1S6-0-3-2-5-0-6---*|
|-1S6-0-3-2-5-0-6---|----1S6-0-3-0-5-6-|-1S6-0-3-2-5-0-6---*|



***************************************************************************************
* Generated using Power Tab Editor by Brad Larsen - http://powertab.guitarnetwork.org *
***************************************************************************************
Comments