Slipknot - The Shape Chords & Tabs

 

The Shape Chords & Tabs

Slipknot Chords & Tabs

Version: 1 Type: Bass Tab 0 ratings
1 star 2 stars 3 stars 4 stars 5 stars
comments

The Shape Bass Tab

   
Music X Tabs [http://www.mxtabs.net]
Slipknot
"The Shape"
/ = slide
b = bend
sc= scrape pick on string

INTRO
|------------------------------|
|------------------------------|
|------------------------------|
|-0-8-13-0-1-3-1-0--8-13-0-1-3-|

CHORUS
|--------------------------------------------|
|--------------------------------------------|
|--------------------------------------------|
|-9--8--9--4--4--3----3--4--3--4--6--5--6--8-|

VERSE
|-------|-------------------------|
|-------|-------------------------|
|-------|-------------------------|
|-18/0--|-2-1---0-1-2-1---0-1-2-1-|

CHORUS
|--------------------------------------------|
|--------------------------------------------|
|--------------------------------------------|
|-9--8--9--4--4--3----3--4--3--4--6--5--6--8-|
[ Tab from: http://www.guitartabs.cc/tabs/s/slipknot/the_shape_btab.html ]
VERSE
|-----8/7-8/7---7-----8/7-8/7-----8/7-8/7-8/7------|
|-----------------6---------------------------6---|
|-6-----------6-----5--------7-7---------------5--|
|-------------------------------------------------|

CHORUS
|--------------------------------------------|
|--------------------------------------------|
|--------------------------------------------|
|-9--8--9--4--4--3----3--4--3--4--6--5--6--8-|

BRIDGE
|--------------------------|-------------------------|
|--------------------------|-------------------------|
|--------------------------|-------------------------|
|-2-1---0-1-2-1---0-1-20/0-|--2p1--0-1-2-1-2-0-1-2-1-|

CHORUS
|--------------------------------------------|
|--------------------------------------------|
|--------------------------------------------|
|-9--8--9--4--4--3----3--4--3--4--6--5--6--8-|

END
|-------|-------------------------|
|-------|-------------------------|
|-------|-------------------------|
|-18/0--|-2-1---0-1-2-1---0-1-2-1-|
Comments