Slipknot - Surfacing Chords & Tabs

 

Surfacing Chords & Tabs

Slipknot Chords & Tabs

Version: 2 Type: Tab 0 ratings
1 star 2 stars 3 stars 4 stars 5 stars
comments

Surfacing Tab

   
Artist:  Slipknot
Song:    Surfacing

Tuning:  B F# B E G# C#  or   D A D G B E (Droped D)

Tabbed by Javier Munoz



Guitar Intro Part 1
---------------------------------------------
---------------------------------------------
---------------------------------------------
--0-0--0-1---0-0--0-1---0-0--0-1---0-0--0-1--2x
--0-0--0-1---0-0--0-1---0-0--0-1---0-0--0-1--
--0-0--0-1---0-0--0-1---0-0--0-1---0-0--0-1--

Then

Intro Part 2
-------------------------------------------------------------
-------------------------------------------------------------
-------------------------------------------------------------
--0-0-0--0-0-1---0-0-0--0-0-1---0-0-0--0-0-1---0-0-0--0-0-1--2x
--0-0-0--0-0-1---0-0-0--0-0-1---0-0-0--0-0-1---0-0-0--0-0-1--
--0-0-0--0-0-1---0-0-0--0-0-1---0-0-0--0-0-1---0-0-0--0-0-1--

Verse
--17-19--17-19--17-19--17-19--
------------------------------
------------------------------
------------------------------4x
------------------------------
------------------------------

Then

--19-17--19-17--19-17--
-----------------------
-----------------------
-----------------------2x
-----------------------
-----------------------
[ Tab from: http://www.guitartabs.cc/tabs/s/slipknot/surfacing_tab_ver_2.html ]
Chorus (Like Intro Part 2 But With Heavier Distortion)
----------------------------------------------------------------------------
----------------------------------------------------------------------------
----------------------------------------------------------------------------
--0-0-0--0-0-1---0-0-0--0-0-1---0-0-0--0-0-1---0-0-0--0-0-1---0-0-0--0-0-1--3x 
--0-0-0--0-0-1---0-0-0--0-0-1---0-0-0--0-0-1---0-0-0--0-0-1---0-0-0--0-0-1--
--0-0-0--0-0-1---0-0-0--0-0-1---0-0-0--0-0-1---0-0-0--0-0-1---0-0-0--0-0-1--
      
 Bridge Part 1
---------------------------------------------------
---------------------------------------------------
---------------------------------------------------
---------------------------------------------------4x
-----------7--6-----------------4--3---------------
--8--7--6--------8--7--6--4--3--------4--3--2--1---



Then

Bridge Part 2 (Same As Bridge Part 1 But With Palm mute, 'p.m')
---------------------------------------------------
---------------------------------------------------
---------------------------------------------------
---------------------------------------------------4x
-----------7--6-----------------4--3---------------
--8--7--6--------8--7--6--4--3--------4--3--2--1---

[......................P.M........................]

Then

Bridge Part 3 (Same As Bridge Part 1)
---------------------------------------------------
---------------------------------------------------
---------------------------------------------------
---------------------------------------------------4x
-----------7--6-----------------4--3---------------
--8--7--6--------8--7--6--4--3--------4--3--2--1---


Outro (Same as Intro Part 2)
-------------------------------------------------------------
-------------------------------------------------------------
-------------------------------------------------------------
--0-0-0--0-0-1---0-0-0--0-0-1---0-0-0--0-0-1---0-0-0--0-0-1--4x
--0-0-0--0-0-1---0-0-0--0-0-1---0-0-0--0-0-1---0-0-0--0-0-1--
--0-0-0--0-0-1---0-0-0--0-0-1---0-0-0--0-0-1---0-0-0--0-0-1--

    
Comments