Slipknot - Surfacing Chords & Tabs

 

Surfacing Chords & Tabs

Slipknot Chords & Tabs

Version: 3 Type: Bass Tab 0 ratings
1 star 2 stars 3 stars 4 stars 5 stars
comments

Surfacing Bass Tab

   
I decided to tab a better version cuz all the other tabs
where mostly wrong... 

Tuning: B E A D (low to high)

Intro 
D----------------
A----------------
E----------------
B-0-1- rest -0-1- 

Chorus- There are 2 main variations on the chorus
just listen to the cd.

Chorus
D-----------
A-----------
E-----------
B-0-1-0-0-1-
[ Tab from: http://www.guitartabs.cc/tabs/s/slipknot/surfacing_btab_ver_3.html ]
Verse- I know you don't think this is right! 
If you don't think it is right go and by
their video... it sounds good to me.

Verse
D----------
A------0-1-
E----------
B-0-1------

Interlude 1
D--------------------------------
A---------------------------------
E-------7-6-5-------4-3-2---------
B-8-7-6-------6-5-4-------3-2-1-0-

Second interlude
D----------------
A----------------
E---------2-1----
B-3-2-3-2-----3-2

"I am the push that makes you move..."
D--------------
A-2-2-3-2-2-3--
E--------------
B--------------

That's it... enjoy maggot!

<*>diablos... the dark emperor... salutes you<*> 


Comments