Slipknot - Surfacing Chords & Tabs

 

Surfacing Chords & Tabs

Slipknot Chords & Tabs

Version: 1 Type: Bass Tab 0 ratings
1 star 2 stars 3 stars 4 stars 5 stars
comments

Surfacing Bass Tab

   
ARTIST- SLIPKNOT
ALBUM- SLIPKNOT
ON ROADRUNNER RECORDS
SONG-   SURFACING
TABBED BY NICK BILLINGTON@
strappingyounglad@uk.dreamcast.com

THIS SONG IS A TOTAL BEAST AND IS FOR THE 
MOST PART VERY EASY.

RIFF A - THERE ARE 2 MAIN VARIATIONS ON THIS
RIFF. JUST LISTEN TO THE CD.

RIFF A

D--------------
A--------------
E--------------
B-0-0-1-0-R-0-1

RIFF B- FIRST INTERLUDE
[ Tab from: http://www.guitartabs.cc/tabs/s/slipknot/surfacing_btab.html ]
D-------------------------------
A------5-4-3--------------------
E-3-2-1------------6-5-4--------
B------------6-5-4-------3-2-1-0

RIFF C- SECOND (RIFF) IN INTERLUDE

D----------------
A----------------
E---------4-3----
B-3-2-3-2-----3-2

RIFF D- SITS BETWEEN RIFF C AND `I AM THE 
PUSH`

D---------------
A-2-2-3-2-R-2-3
E---------------
B---------------

OK THATS ABOUT IT! HAVE FUN

Comments