Slipknot - Spit It Out Chords & Tabs

 

Spit It Out Chords & Tabs

Slipknot Chords & Tabs

Version: 7 Type: Tab 0 ratings
1 star 2 stars 3 stars 4 stars 5 stars
comments

Spit It Out Tab

   
slipknot
spit it out


Drop B tuning
B F# B E G# C#

-----------------|-|-|-|----------|-------------------------------------------
-----------------|-|-|-|----------|-------------------------------------------
-----------------|-|-|-|----------|-------------------------------------------
-----------------|-|-|-|----------|-------------------------------------------
-1-0-----0----1-0|-|-|-|1-0----1--|-------------------------------------------
-1-0-/5--0-/5-1-0|-|-|-|1-0-/5-1--|-------------------------------------------
 PM-    |-|  |---|x5    PM-|     only one gtr w/ flanger  INTRO               

-------------------|----------------------------------------------------------
-------------------|----------------------------------------------------------
-----/5-----/5-----|----------------------------------------------------------
-----/3-----/3-----|----------------------------------------------------------
-1-0----1-0----1-0-|----------------------------------------------------------
-1-0----1-0----1-0-|----------------------------------------------------------
 PM-|  |---|  |---| x6   both gtrs w/o flanger  VERSE                         

---------------------------|--------------------------------------------------
---------------------------|--------------------------------------------------
---------------------------|--------------------------------------------------
---------------------------|--------------------------------------------------
-3-3-3--3-2--2-3--3-1--1-1-|--------------------------------------------------
-3-3-3--3-2--2-3--3-1--1-1-|--------------------------------------------------
 CHORUS                   x5                                                  

-------------------|----------------------------------------------------------
-------------------|----------------------------------------------------------
-------------------|----------------------------------------------------------
------6-------7br--|----------------------------------------------------------
--5-------5--------|----------------------------------------------------------
-------------------|----------------------------------------------------------
 INTER gtr1       x8                                                          

--11-11-11-----11-11-11----11--|---11-11-11-----11-11-11-----11|--------------
--10-10-10-----10-10-10----10--|---10-10-10-----10-10-10-----10|--------------
--8--8--8------8--8--8-----8---|---8--8--8------8--8--8------8-|--------------
-------------------------------|-------------------------------|--------------
-------------------------------|-------------------------------|--------------
-------------------------------|-------------------------------|--------------
 gtr2 w/ left and right panning                              x2               

-----------|--------------------------------|---------------------------------
-----------|--------------------------------|---------------------------------
-----------|--7-7-7-7--7-8--8-7--7-8---8-7--|---------------------------------
-----------|--x-x-x-x--x-x--x-x--x-x---x-x--|---------------------------------
-----------|--5-5-5-5--5-6--6-5--5-6---6-5--|---------------------------------
-----------|--------------------------------|---------------------------------
 BRIDGE "Bout time i set this record.."part x4  gtr1                          
[ Tab from: http://www.guitartabs.cc/tabs/s/slipknot/spit_it_out_tab_ver_7.html ]
-----------|--------------------------------|---------------------------------
-----------|--------------------------------|---------------------------------
-----------|--------------------------------|---------------------------------
-----------|--------------------------------|---------------------------------
-----------|-0-0-0--------------------------|---------------------------------
-----------|-0-0-0--------------------------|---------------------------------
                                         x4     gtr2                          

--------------------------------------|---------------------------------------
--------------------------------------|---------------------------------------
-14-14-14--14-15--15-14--14-15--15-14-|-19-19-19--19-20--20-19--19-20--20-19--
-x--x--x---x--x---x--x---x--x---x--x--|-x--x--x---x--x---x--x---x--x---x--x---
-12-12-12--12-13--13-12--12-13--13-12-|-17-17-17--17-18--18-17--17-18--18-17--
--------------------------------------|---------------------------------------
 gtr1                                                                         

--------------------------------------|---------------------------------------
--------------------------------------|---------------------------------------
--------------------------------------|---------------------------------------
--------------------------------------|---------------------------------------
--------------------------------------|---------------------------------------
-0--0--0---0--1---1--0---0--1---1--0--|-0--0--0---0--1---1--0---0--1---1--0---
 gtr2                                                                         

--------------------------------------|---------------------------------------
--------------------------------------|---------------------------------------
-19-19-19--19-20--20-19--19-20--20-19-|-*-*-*-*-*-*-*-*-*-*-*-*-*-*-*-*-*-*---
-x--x--x---x--x---x--x---x--x---x--x--|-x-x-x-x-x-x-x-x-x-x-x-x-x-x-x-x-x-x---
-17-17-17--17-18--18-17--17-18--18-17-|-^-^-^-^-^-^-^-^-^-^-^-^-^-^-^-^-^-^---
--------------------------------------|---------------------------------------
 gtr1                                   *=21  ^=19                            

--------------------------------------|---------------------------------------
--------------------------------------|---------------------------------------
--------------------------------------|---------------------------------------
--------------------------------------|---------------------------------------
-0--0--0---0--1---1--0---0--1---1--0--|-0--0--0---0--1---1--0---0--1---1--0---
-0--0--0---0--1---1--0---0--1---1--0--|-0--0--0---0--1---1--0---0--1---1--0---
 gtr2       INTER2                                                            

------------------------------------------------------------------------------
------------------------------------------------------------------------------
------------------------------------------------------------------------------
------------------------------------------------------------------------------
------------------------------------------------------------------------------
------------------------------------------------------------------------------
 play gtr2's part above for F*** me!I'm all out of..." part then PM chorus    

------------------------------------------------------------------------------
------------------------------------------------------------------------------
------------------------------------------------------------------------------
------------------------------------------------------------------------------
------------------------------------------------------------------------------
------------------------------------------------------------------------------
 for outro  order:intro/verse/chorus/inter/verse/chorus/bridge/inter2/chorus/ 

------------------------------------------------------------------------------
------------------------------------------------------------------------------
------------------------------------------------------------------------------
------------------------------------------------------------------------------
------------------------------------------------------------------------------
------------------------------------------------------------------------------
 PMchorus
Comments