Slipknot - Spit It Out Chords & Tabs

 

Spit It Out Chords & Tabs

Slipknot Chords & Tabs

Version: 3 Type: Tab 0 ratings
1 star 2 stars 3 stars 4 stars 5 stars
comments

Spit It Out Tab

   
Slipknot
Spit it out


tuning is 1,1'2 steps down with the 6th string dropped.
(B,F#,B,E,G#,C#)
(6,5 ,4,3,2 ,1 )

Ahh.. here it is. The well known intro that many people have wonder about... "How is the fuckin intro?"
Well, it isn't that hard at all... let's begin!

Intro (use wah-wah, flanger and chorus pedals on both guitars)
Gtr 1         
---------------------------------------------|
---------------------------------------------|
---------------------------------------------|
---------------------------------------------|
---------------------------------------------|
-1-0--/3--1-0--/2--1-0-1-0--/3--1-0--/2--1-0-|

Gtr2
---------------------------------------------|
---------------------------------------------|
------/2-------/3-----------/2-------/3------|
---------------------------------------------|
---------------------------------------------|
-1-0------1-0------1-0-1-0------1-0------1-0-|

Verse (clean)
Gtr 1
---------------------------------------------|
---------------------------------------------|
---------------------------------------------|
---------------------------------------------|
-1-0------1-0------1-0-1-0------1-0------1-0-|
-1-0--/5--1-0--/5--1-0-1-0--/5--1-0--/5--1-0-|
[ Tab from: http://www.guitartabs.cc/tabs/s/slipknot/spit_it_out_tab_ver_3.html ]
Gtr2
---------------------------------------------|
---------------------------------------------|
------/2-------/3-----------/2-------/3------|
---------------------------------------------|
---------------------------------------------|
-1-0------1-0------1-0-1-0------1-0------1-0-|


CHORUS
Both Gtrs
-------------------------|
-------------------------|
-------------------------|
-------------------------|
-3-3--2-2--2-3--3-1--1-1-|
-3-3--2-2--2-3--3-1--1-1-|


Any Gtr
----------------|
----------------|
-----5-----6~^^~|
-7-----6--------|
----------------|
----------------|


Gtr 1
-------------------------| |-------------------------| |-9-9-9-9-9-9-9-9-9-9-9-9-|
-------------------------| |-8-8--8-9--9-8--8-9--9-8-| |-9-9-9-9-9-9-9-9-9-9-9-9-|
-7-7--7-8--8-7--7-8--8-7-| |-7-7--7-8--8-7--7-8--8-7-| |-8-8-8-8-8-8-8-8-8-8-8-8-|
-------------------------| |-------------------------| |-------------------------|
-5-5--5-6--6-5--5-6--6-5-| |-5-5--5-6--6-5--5-6--6-5-| |-------------------------|
-------------------------| |-------------------------| |-------------------------|

Gtr 2
-------------------------| |-------------------------| |-------------------------|
-------------------------| |-------------------------| |-------------------------|
-------------------------| |-------------------------| |-------------------------|
-------------------------| |-------------------------| |-------------------------|
-0-0---------------------| |-0-0---------------------| |-0-0---------------------|
-0-0---------------------| |-0-0---------------------| |-0-0---------------------|


Both Gtrs
-------------------------|
-------------------------|
-------------------------|
-------------------------|
-0-0--0-1--1-0--0-1--1-0-|
-0-0--0-1--1-0--0-1--1-0-|

***SPREAD THE (SIC)NESS***

Comments