Slipknot - Spit It Out Chords & Tabs

 

Spit It Out Chords & Tabs

Slipknot Chords & Tabs

Version: 3 Type: Bass Tab 0 ratings
1 star 2 stars 3 stars 4 stars 5 stars
comments

Spit It Out Bass Tab

#----------------------------------PLEASE NOTE----------------------------------#
# This file is the author's own work and represents their interpretation of the #
# song. You may only use this file for private study, scholarship, or research. #
#-------------------------------------------------------------------------------#

Slipknot

Spit It Out

Tabbed By Davide Castagnone
[ Tab from: http://www.guitartabs.cc/tabs/s/slipknot/spit_it_out_btab_ver_3.html ]
Verse
E |--------------------------------------------|
B |--------------------------------------------|
F#|--------------------------------------------|
B |--0-0-1-0-0-1-0-1---------------------------|

Chorus
E |--------------------------------------------|
B |--------------------------------------------|
F#|--------------------------------------------|
B |-3-2-2-2-2-2-3-1-1-1-1----------------------|

Interlude
E |-----------------------------------------|
B |-7-7-7-7-8-x4----------------------------|
F#|----------------17-17-17-17--------------|
B |-----------------------------------------|
Comments