Slipknot - Slipknot Chords & Tabs

 

Slipknot Chords & Tabs

Slipknot Chords & Tabs

Version: 3 Type: Tab 0 ratings
1 star 2 stars 3 stars 4 stars 5 stars
comments

Slipknot Tab

   
Song: Slipknot (Solo)
Artist: Slipknot
Written by: Slipknot
Lyrics by: Slipknot
Rating: 2 of 5  Solo: 3,5 of 5
Album: Mate,Feed,Kill,Repeat
tabed by Per "Pocket" Stenberg
fanta98@hotmail.com


This is my first Slipknot tab becase usally I tab Marilyn Manson,
David Lee Roth,Pantera and other various things. The solo in this
song is OK but not that good, there is only one good part in it.
I didn't even know that Slipknots guitar players was that "good"
But I don't mean like Dimebag (Pantera), Petrucci (Dream Theater),
John5 (Marilyn Manson) good but more like sum41 good. 
All that I see when I look on Slipknot is 8 dumb fucks who can't
play anything and one overrated drummer. If you want a good drummer
that doesn't use his bass drum every second but can use 'em really
good in solos... then look up Ginger Fish (Marilyn Manson) 
and ofcourse Mike Portnoy (Dream Theater) This tab needs to work on 
but it is better then nothing.


Legend:

h = hammer-on
p = pull-of
b = bend
r = realse
/ = slide down
\ = slide upp
~ = vibration
T = taping
. = palm muted
()= ghost note
x = mute with your left hand
" = Pinch Harmonic


Solo

[ Tab from: http://www.guitartabs.cc/tabs/s/slipknot/slipknot_tab_ver_3.html ]
|-13p12----12h13p12----12h13p12-----------13p12----12h13p12----12h13p12|
|-------14----------14-----------14p13p11-------14----------14---------|
|----------------------------------------------------------------------|
|----------------------------------------------------------------------|
|----------------------------------------------------------------------|
|----------------------------------------------------------------------|


|----------------------------------------------------------------------|
|-14p13p11------------11h13h14p13p11-10h11h13p11p10-10-8----8----------|
|----------13p12p10--------------------------------------10---10----12-|
|----------------------------------------------------------------------|
|----------------------------------------------------------------------|
|----------------------------------------------------------------------|

|-12----------14----------17-----------19--------------19~-------------|
|-----12----------14----------17-----------19------------------------12|
|---------12----------14----------17-----------19--19-------------12---|
|--------------------------------------------------------------12------|
|-----------------------------------------------------------14---------|
|----------------------------------------------------------------------|


etc... then it goes on for about 2 sec more...but I don't feel 
like tabing it. If you don't like my tab... SUE ME!
Comments