Slipknot - Sic Chords & Tabs

 

Sic Chords & Tabs

Slipknot Chords & Tabs

Version: 7 Type: Tab 0 ratings
1 star 2 stars 3 stars 4 stars 5 stars
comments

Sic Tab

   
Person: Bill, GTRST99@aol.com

song: (Sic)

artist: Slipknot

tab: 6 string tuned down 1 step
h=hammer on
m=palm mute
+=up-stroke
Intro ----> (listen to CD for rhythm; both guitars)
d|----------------------------------|
a|----------------------------------|
F|--------------------------------4-|
C|--------------------------------3-|
G|-2-2-2---2-2-2---2-2-2---2-2-2--2-|
D|-0-0-0---0-0-0---0-0-0---0-0-0----|

Riff 1  (Guitar 1)
d|--------------------------------|
a|--------------------------------|
F|--------------------------------|
C|--------------------------------|
G|--------------------------------|
D|-0-1-0-1-0--1-0--1-0-1--4-4-4-4-|

Riff 1  (Guitar 2; listen to CD for timing)
d|-------------------------------|
a|-------------------------------|
F|-------------------------------|
C|-------------------------------|
G|-------------------------------|
D|-1-0--1-0--1-0--1-0-1--4-4-4-4-|

Verse Riff A
d|----------------------------------|
a|----------------------------------|
F|----------------------------------|
C|----------------------------------|
G|-2-----2-2-2--2-2--2-2-2--6-6-6-6-|
D|-0-----0-0-0--0-0--0-0-0--4-4-4-4-|

Verse Riff B
d|-------------------------------|
a|-------------------------------|
F|-------------------------------|
C|-------------------------------|
G|-------------------------------|
D|-1-0--1-0--1-0--1-0-1--4-4-4-4-|
[ Tab from: http://www.guitartabs.cc/tabs/s/slipknot/sic_tab_ver_7.html ]
Chorus Riff C (Guitar 1; tremolo pic these notes)
d|--------------------------------------------------------|
a|--------------------------------------------------------|
F|-12-12-12-12-12-10-10-10-10-10-11-11-11-11-11-9-9-9-9-9-|
C|--------------------------------------------------------|
G|-10-10-10-10-10--8--8--8--8--8--9--9--9--9--9-7-7-7-7-7-|
D|--------------------------------------------------------|

Chorus Riff C (Gutar 2)
d|--------------------------------------------------------|
a|--------------------------------------------------------|
F|--------------------------------------------------------|
C|--------------------------------------------------------|
G|--------------------------------------------------------|
D|-3--3--3--3--3---1--1--1--1--1--2--2--2--2--2-0-0-0-0-0-|

Riff D
d|---------------------|
a|---------------------|
F|---------------------|
C|-2-----3---2h3h2---2-|
G|---------------------|
D|---0-0-----------3---|

Riff E (Use wah-wah pedal, but sound on the CD is DJ)
d|--------------|
a|--------------|
F|-7-7-7--------|
C|-7-7-7---5--5-|
G|-5-5-5---5--5-|
D|---------3--3-|

Bridge
d|------------------|
a|------------------|
F|------------------|
C|------------------|
G|-2--2m-2m-2m-2m2m-|
D|-0--0m-0m-0m-0m0m-|

Interlude
d|-------------------|
a|-------------------|
F|-------------------|
C|----2--------------|
G|-4--0--3--4--6-5-4-|
D|-2-----1--2--4-3-2-|

Outro
d|-----------------|
a|-----------------|
F|-----------------|
C|-----------------|
G|-----------------|
D|-3-4+3-0+2-3+2-0+|

Intro (8 times)
Riff 1 (4 times)
Riff A (4 times)
Riff B (2 times)
Riff A (2 times)
Riff C (4 times)
Riff 1 (1 time)
Riff A (4 times)
Riff B (4 times)
Riff C (4 times)
Riff D (4 times)
Riff E (4 times)
Bridge (4 times)
Interlude (4 times)
Bridge (4 times)
Outro (32 times)
Comments