Slipknot - Sic Chords & Tabs

 

Sic Chords & Tabs

Slipknot Chords & Tabs

Version: 4 Type: Tab 1 rating
1 star 2 stars 3 stars 4 stars 5 stars
comments

Sic Tab

   
this is the song

intro 
F#|-------------------| 
 B|-00-0000-0000-0001-| 

pre-verse 
F#|---------------| 
 B|-3-2-1-0-1-0-0-| 

verse 
F#|-------------------------| 
 B|-1-1-0-1-0-1-0-1-3-2-1-0-| 

fill 
F#|---------------------| 
 B|-4444-2222-3333-1111-| 
[ Tab from: http://www.guitartabs.cc/tabs/s/slipknot/sic_tab_ver_4.html ]
break1 
F#|--------------------| 
 B|-1-1--1-1--1-1--1-1-| 

break2 
F#|-------------| 
 B|-3h5-5-0-1-1-| 

break3 
F#|-----------| 
 B|-1-1-1-1-1-| 

break4 
F#|---------------| 
 B|-3-5-2-6-2-3-0-| 

"you cant kill me cuz im allready inside you..." 
F#|-------------------------------| 
 B|-3-2-0-2-1-0-3-2-0-2-1-0-3-2-0-|   
Comments