Slipknot - Sic Chords & Tabs

 

Sic Chords & Tabs

Slipknot Chords & Tabs

Version: 15 Type: Tab 0 ratings
1 star 2 stars 3 stars 4 stars 5 stars
comments

Sic Tab

 -----------------------------------------------------------------|
------------------------------------------------------------------|
------------------------------------------------------------------|
------------------------------------------------------------------|
------------------------------------------------------------------|
00-000-000-0001--00-000-000-0001----------------------------------|x2

-----------------------------------------------------------------|
-----------------------------------------------------------------|
-----------------------------------------------------------------|
-----------------------------------------------------------------|
-----------------------------------------------------------------|
00-1-1-00-1-1-00-1-1-00-1111-------------------------------------|x4

here comes the paine!

-----------------------------------------------------------------|
-----------------------------------------------------------------|
-----------------------------------------------------------------|
-----------------------------------------------------------------|
-----------------------------------------------------------------|
2-1-x1-0-x1-0-x1-0-0---------------------------------------------|x4

-----------------------------------------------------------------|
-----------------------------------------------------------------|
-----------------------------------------------------------------|
-----------------------------------------------------------------|
-----------------------------------------------------------------|
-2Po0h1Po0-1Po0 1PoO-3210----------------------------------------|X2

---------------------------------------------------------------------------|
---------------------------------------------------------------------------|
---------------------------------------------------------------------------|
---------------------------------------------------------------------------|
---------------------------------------------------------------------------|
2-1-0-X1-0-1-0-0--------------X1-0-1-0-0------ X1-0-1-0-0------------------|

enemy_ show me what you wanna be_ I can handle anything _even if I cant handle you


---------------------------------------------------------------------------|
---------------------------------------------------------------------------|
---------------------------------------------------------------------------|
---------------------------------------------------------------------------|
---------------------------------------------------------------------------|
2-1-0-X1-0-1-0-0--------------X1-0-1-0-0------ X1-0-1-0-0------------------|
Readily _REither way it better be _   don't you fuck`n pitty me get up! get off!


-----------------------------------------------------------------|
-----------------------------------------------------------------|
-----------------------------------------------------------------|
-----------------------------------------------------------------|
-----------------------------------------------------------------|
-2Po0h1Po0-1Po0 1PoO-3210----------------------------------------|
What the hell am I sayin'? I don't know about malevolent

-----------------------------------------------------------------|
-----------------------------------------------------------------|
-----------------------------------------------------------------|
-----------------------------------------------------------------|
-----------------------------------------------------------------|
-2Po0h1Po0-1Po0 1PoO-3210----------------------------------------|
Sure as hell decadent I want somebody to step up, step off

---------------------------------------------------------------------------|
---------------------------------------------------------------------------|
---------------------------------------------------------------------------|
---------------------------------------------------------------------------|
---------------------------------------------------------------------------|
2-1-0-X1-0-1-0-0--------------X1-0-1-0-0------ X1-0-1-0-0------------------|
Walls! Let me fall!                      FUCK YOU ALL!


---------------------------------------------------------------------------|
---------------------------------------------------------------------------|
---------------------------------------------------------------------------|
---------------------------------------------------------------------------|
---------------------------------------------------------------------------|
2-1-0-X1-0-1-0-0--------------X1-0-1-0-0------ X1-0-1-0-0------------------|
            Get a grip, don't let me slip 'til I drop the ball

---------------------------------------------------------------------------|
---------------------------------------------------------------------------|
---------------------------------------------------------------------------|
---------------------------------------------------------------------------|
---------------------------------------------------------------------------|
-999555888444--------------------------------------------------------------|

---------------------------------------------------------------------------|
---------------------------------------------------------------------------|
---------------------------------------------------------------------------|
---------------------------------------------------------------------------|
---------------------------------------------------------------------------|
-999555888444--------------------------------------------------------------|

---------------------------------------------------------------------------|
---------------------------------------------------------------------------|
---------------------------------------------------------------------------|
---------------------------------------------------------------------------|
---------------------------------------------------------------------------|
-999555888444--------999555888444------------------------------------------|
I - I want it all! Fuck this shit, I'm sick of it You're goin' down, this is a war!


-----------------------------------------------------------------|
-----------------------------------------------------------------|
-----------------------------------------------------------------|
-----------------------------------------------------------------|
-----------------------------------------------------------------|
-2Po0h1Po0-1Po0 1PoO-3210----------------------------------------|

fuck it

---------------------------------------------------------------------------|
---------------------------------------------------------------------------|
---------------------------------------------------------------------------|
---------------------------------------------------------------------------|
---------------------------------------------------------------------------|
2-1-0-X1-0-1-0-0--------------X1-0-1-0-0------ X1-0-1-0-0------------------|x4

-----------------------------------------------------------------|
-----------------------------------------------------------------|
-----------------------------------------------------------------|
-----------------------------------------------------------------|
-----------------------------------------------------------------|
-2Po0h1Po0-1Po0 1PoO-3210----------------------------------------|
who the fuck am I to criticize your twisted state of mine

-----------------------------------------------------------------|
-----------------------------------------------------------------|
-----------------------------------------------------------------|
-----------------------------------------------------------------|
-----------------------------------------------------------------|
-2Po0h1Po0-1Po0 1PoO-3210----------------------------------------|
your leaving me a suspect, leaving me a grotesque

[ Tab from: http://www.guitartabs.cc/tabs/s/slipknot/sic_tab_ver_15.html ]
-----------------------------------------------------------------|
-----------------------------------------------------------------|
-----------------------------------------------------------------|
-----------------------------------------------------------------|
-----------------------------------------------------------------|
-2Po0h1Po0-1Po0 1PoO-3210----------------------------------------|
feels like a burn from which you never learne
-----------------------------------------------------------------|
-----------------------------------------------------------------|
-----------------------------------------------------------------|
-----------------------------------------------------------------|
-----------------------------------------------------------------|
-2Po0h1Po0-1Po0 1PoO-3210----------------------------------------|
calls and affect, you jealous ass, press your face against the glass-sufur

 ---------------------------------------------------------------------------|
----------------------------------------------------------------------------|
----------------------------------------------------------------------------|
----------------------------------------------------------------------------|
----------------------------------------------------------------------------|
-999555888444---------------------------------------------------------------|

---------------------------------------------------------------------------|
---------------------------------------------------------------------------|
---------------------------------------------------------------------------|
---------------------------------------------------------------------------|
---------------------------------------------------------------------------|
-999555888444--------------------------------------------------------------|

---------------------------------------------------------------------------|
---------------------------------------------------------------------------|
---------------------------------------------------------------------------|
---------------------------------------------------------------------------|
---------------------------------------------------------------------------|
-999555888444--------999555888444------------------------------------------|
Fuck this shit, I'm sick of it You're goin' down, this is a war!


-----------------------------------|
-----------------------------------|
-----------------------------------|
-------------------------------5^--|
---------5Po0---6Po0---------------|
-----------------------------------| x4

GO!

Solo

----------------------------|
----------------------------|
----------------------------|
----------------------------|
---3h444Po3^----------------|
-------------------------3--|     x4 this solo uses some kind of pedal all I know is I don't have it


--------------------------------------------------------------------------|
--------------------------------------------------------------------------|
--------------------------------------------------------------------------|
--------------------------------------------------------------------------|
--------------------------------------------------------------------------|
x-x-x-x-xx-x-x-x-x-x-x-x-x--x-xx-x-x-x-x-x-x-x-x-x-x-x-x-x-x-x-x-x-x-x-x--|
(the palm mutes are in no way like this but mute the guitar to the lyrics)
ive just begun its about time gotta get mine
--------------------------------------------------------------------------|
--------------------------------------------------------------------------|
--------------------------------------------------------------------------|
--------------------------------------------------------------------------|
--------------------------------------------------------------------------|
x-x-x-x-xx-x-x-x-x-x-x-x-x--x-xx-x-x-x-x-x-x-x-x-x-x-x-x-x-x-x-x-x-x-x-x--|
ive just begun its about time gotta get mine

--------------------------------------------------------------------------|
--------------------------------------------------------------------------|
--------------------------------------------------------------------------|
--------------------------------------------------------------------------|
--------------------------------------------------------------------------|
x-x-x-x-xx-x-x-x-x-x-x-x-x--x-xx-x-x-x-x-x-x-x-x-x-x-x-x-x-x-x-x-x-x-x-x--|
ive just begun its about time gotta get mine

--------------------------------------------------------------------------|
--------------------------------------------------------------------------|
--------------------------------------------------------------------------|
--------------------------------------------------------------------------|
--------------------------------------------------------------------------|
x-x-x-x-xx-x-x-x-x-x-x-x-x--x-xx-x-x-x-x-x-x-x-x-x-x-x-x-x-x-x-x-x-x-x-x--|
ive just begun its about time gotta get mine

----------------------------------------------------------------|
----------------------------------------------------------------|
----------------------------------------------------------------|
----------------------------------------------------------------|
----------------------------------------------------------------|
3-4- 3-5- 3 -5 -4 -3 -2 -1- 3 -2 -1-------------------------x2

---------------------------------------------------|
---------------------------------------------------|
---------------------------------------------------|
---------------------------------------------------|
---------------------------------------------------|
--x-----x-------x-----x---x---xx-------------------|  not muted like this follow lyrics
you cant kill me cuz im already inside you


---------------------------------------------------|
---------------------------------------------------|
---------------------------------------------------|
---------------------------------------------------|
---------------------------------------------------|
--x-----x-------x-----x---x---xx-------------------|  not muted like this follow lyrics
you cant kill me cuz im already inside you

--------------------------------------------------------------------------|
--------------------------------------------------------------------------|
--------------------------------------------------------------------------|
--------------------------------------------------------------------------|
--------------------------------------------------------------------------|
1Po0 00 1Po0----1Po0 00 1Po0-----1Po0 00 1Po0------1Po0 00 1Po0- 1Po0 00--| 1Po0
you cant kill me cuz im already inside you

--------------------------------------------------------------------------|
--------------------------------------------------------------------------|
--------------------------------------------------------------------------|
--------------------------------------------------------------------------|
--------------------------------------------------------------------------|
1Po0 00 1Po0----1Po0 00 1Po0-----1Po0 00 1Po0------1Po0 00 1Po0- 1Po0 00--| 1Po0

you cant kill me cuz im already inside you

--------------------------------------------------------------------------|
--------------------------------------------------------------------------|
--------------------------------------------------------------------------|
--------------------------------------------------------------------------|
--------------------------------------------------------------------------|
1Po0 00 1Po0----1Po0 00 1Po0-----1Po0 00 1Po0------1Po0 00 1Po0- 1Po0 00--| 1Po0
(sic)!                         (sic)!
--------------------------------------------------------------------------|
--------------------------------------------------------------------------|
--------------------------------------------------------------------------|
--------------------------------------------------------------------------|
--------------------------------------------------------------------------|
1Po0 00 1Po0----1Po0 00 1Po0-----1Po0 00 1Po0------1Po0 00 1Po0- 1Po0 00--| 1Po0
(sic)!                         (sic)!

--------------------------------------------------------------------------|
--------------------------------------------------------------------------|
--------------------------------------------------------------------------|
--------------------------------------------------------------------------|
--------------------------------------------------------------------------|
1Po0 00 1Po0----1Po0 00 1Po0-----1Po0 00 1Po0------1Po0 00 1Po0- 1Po0 00--| 1Po0
do this until the end then

----------------------------------|
----------------------------------|
--2------5------4------4-------6--|
--3------6------5------5-------7--|
--3------6------5------5-------7--|
--1------4------3------3-------5--|

low distortion
Comments