Slipknot - Sic Chords & Tabs

 

Sic Chords & Tabs

Slipknot Chords & Tabs

Version: 10 Type: Tab 0 ratings
1 star 2 stars 3 stars 4 stars 5 stars
comments

Sic Tab

   
Song: (sic)
Artist: SlipKnot
Album: SlipKnot
Tabbed by: Elliot Smith (elliot_smith01@hotmail.com)

This is almost close to 100% so happy learning slipknot fans...stay (sic)

tuning .... (B F# B E G# C#)


C#------------------------------------
G#------------------------------------		
E ------------------------------------  X8 
B ------------------------------------  
F#---0-------0-------0-------0-------1
B -0-0---0-0-0---0-0-0---0-0-0---0-0-1
pm   .       .       .       .       .
(start at 0.21) with d.j fx fuckin it up 
C#------------------------------------
G#------------------------------------
E ------------------------------------   end at 0.32
B ------------------------------------ 
F#---3-----------1--------------------
B ---3-0-0-0-0-0-1--------------------


C#------------------------------------
G#------------------------------------
E ------------------------------------
B ------------------------------------
F#------------------------------------
B --1-0-1-0-1-0-1-0-4-3-0-6-----------


C#----------------------------
G#----------------------------
E ----------------------------
B ----------------------------
F#------------------4-3---6---
B --1-0-1-0-1-0-1-0-4-3-0-6---
		  pm.... ..		


C#-----------------------------
G#-----------------------------
E -----------------------------
B ----------------------------- X4
F#--1-0-1-0-1-0-1-0-4-3-0-6----
B --1-0-1-0-1-0-1-0-4-3-0-6----
pm  . . . . . . . . . . . . 
C#---------------------------
G#---------------------------
E ---------------------------
B --------------------------- X2
F#---------------------------
B --1-0-1-0-1-0-1-0-4-3-0-6--

C#-----------------------------
G#-----------------------------
E -----------------------------
B -----------------------------
F#--1-0-1-0-1-0-1-0-4-3-0-6----
B --1-0-1-0-1-0-1-0-4-3-0-6----
pm  . . . . . . . . . . . .
C#-----------------
G#-----------------
E ---12/-9/-11/-8--
B ---12/-9/-11/-8-- X4
F#---10/-7/-9-/-6--
B ----\--\--\---\-

/ = strum rapidly but about 3 times is enough
[ Tab from: http://www.guitartabs.cc/tabs/s/slipknot/sic_tab_ver_10.html ]
C#-----------------------------
G#-----------------------------
E -----------------------------
B ----------------------------- 
F#------------------4-3-0-6----
B --1-0-1-0-1-0-1-0-4-3-0-6----
pm                  . . . . 
C#-----------------------------
G#-----------------------------
E -----------------------------
B ----------------------------- X4
F#--1-0-1-0-1-0-1-0-4-3-0-6----
B --1-0-1-0-1-0-1-0-4-3-0-6----
pm  . . . . . . . . . . . .
C#---------------------------
G#---------------------------
E ---------------------------
B --------------------------- X4
F#---------------------------
B --1-0-1-0-1-0-1-0-4-3-0-6--


C#-----------------
G#-----------------
E ---12/-9/-11/-8--
B ---12/-9/-11/-8-- X4
F#---10/-7/-9-/-6--
B ----\--\--\---\-


C#-------------------------------------
G#-------------------------------------
E ---7-----------8---------------------
B ---7-----------8--------------------- X4
F#---5-----------6---------------------
B -------6-0-0------7~-0---------------

(heavy flanger mixed with a bit of Wah)
C#---------------------------------
G#---------------------------------
E ---7/8\7-------------------------
B ---7/8\7-6-6-6-6-6-6--X3---------
F#---5/6\5-6-6-6-6-6-6-------------
B ---------6-6-6-6-6-6------4-4/7~-

(flanger off)


C#--------------------
G#--------------------
E -------------------- X4
B --------------------
F#--0--0--0--0--0-----
B --0--0--0--0--0--1--
do not strum hard ..just softly

C#-----------------------
G#-----------------------
E ----------------------- X4
B ----------------3------
F#---0----3----2--1-0-3-2
B ---0----3----2----0-3-2
pm                  . . .
C#--------------------
G#--------------------
E -------------------- X4
B --------------------
F#--0--0--0--0--0-----
B --0--0--0--0--0--1--

C#---------------------
G#---------------------
E --------------------- X4
B ---------------------
F#--5--2--1--2--1--2-0-
B --5--2--1--2--1--2-0-

C#--------------------
G#--------------------
E -------------------- 
B -------------------- til end 
F#--------------------
B -0--3--2--1--4--0---

Thats it..pretty easy..

Stay (sic)fuckers - SlipKnot 
Comments