Slipknot - Sic Chords & Tabs

 

Sic Chords & Tabs

Slipknot Chords & Tabs

Version: 1 Type: Tab 2 ratings
1 star 2 stars 3 stars 4 stars 5 stars
comments

Sic Tab

   



Band: Slipknot
Song: (SIC)

Tabbed by: James L

This is 100% right because I've got their tab book. But if you really do feel
that some thing is wrong e-mail it me at jle4077627@aol.com


Tuning: Down 1 & 1/2 steps (C#,G#,E,B,F#,B)

[...]= palm mute
*= play as fast as possible

(Intro)
|---------------------------------------|  (Play 8 times)  
|---------------------------------------|                  play this just after
|---------------------------------------|                  he says "pick up the
|---------------------------------------|                  pace"
|----0---------0---------0-----------3--|                  |-3--1-|
|--0-0-----0-0-0-----0-0-0-----0-0-0-3--|                  |-3--1-|
  [.]     [...]     [...]     [.....]


|-------------------------| (play this 8 times)
|-------------------------|
|-------------------------|
|-------------------------|
|-------------------3--1--|
|-0--0----0-0-0--0--3--1--|
 [................]


(Guitar 1 only)

|-----------------------------------------------|
|-----------------------------------------------|
|-----------------------------------------------|
|-----------------------------------------------|
|-----------------------------------------------|
|-1--0--0--1--0----1--0----1--0--1--4--3--0--6--|

(Guitar 1 & 2)
{!} 
|-----------------------------------------------|
|-----------------------------------------------|
|-----------------------------------------------|
|-----------------------------------------------|
|-----------------------------------4--3-----6--|
|-1--0--0--1--0----1--0----1--0--1--4--3--0--6--|

(Verse)

|-----------------------------------------------|  (play this 3 times)
|-----------------------------------------------|  (then play the bit above {!}
|-----------------------------------------------|   2 times and then go back
|-----------------------------------------------|   to this part for 2 times)
|-1--0--0--1--0----1--0----1--0--1--4--3--0--6--|
|-1--0--0--1--0----1--0----1--0--1--4--3--0--6--|
 [............................................]

(Chorus)

(guitar 1)

|---------------------------------------------------------------------------------------------------|
|---------------------------------------------------------------------------------------------------|
|----12-----9----11----8-----12----9----11----8-----12-----9-----11-----8-----12-----9----11-----8--|
|----x------x----x-----x-----x-----x----x-----x-----x------x-----x------x-----x------x----x------x--|
|----10-----7----9-----6-----10----7----9-----6-----10-----7-----9------6-----10-----7----9------6--|
|---------------------------------------------------------------------------------------------------|
     *      *    *     *     *     *    *     *     *      *     *      *     *      *    *      *
(guitar 2 would play this at the same time)

|---------------------------------------------------------------------------------------------------|
|---------------------------------------------------------------------------------------------------|
|---------------------------------------------------------------------------------------------------|
|---------------------------------------------------------------------------------------------------|
|---------------------------------------------------------------------------------------------------|
|----5-----2----4-----1-----5----2----4------1-----5-----2------4------1-----5------2-----4------1--|
     *     *    *     *     *    *    *      *     *     *      *      *     *      *     *      *

back to verse but play it 4 times
then play the chorus.after that play this interlude

(interlude)
[ Tab from: http://www.guitartabs.cc/tabs/s/slipknot/sic_tab.html ]
|---------------------------------------------------------------------------|
|---------------------------------------------------------------------------|
|-----7-------------8-------------8--/--7-------------8------------8--/--7--|
|-----x-------------x-------------x-----x-------------x------------x-----x--|
|-----5-------------6-------------6--/--5-------------6------------6--/--5--|
|----------6--0--0-------7-----0-------------6--0--0-------7-----0----------|
             [....]           [.]              [....]           [.]

then this interlude
(Wah-Wah pedel needed)

       play this part 3 times                then this part
|-------------------------------------|---------------------------------------|
|-------------------------------------|---------------------------------------|
|---8----8----------------------------|--8----8----8----11---------11/14--14--|
|---x----x----7----6-------6----6--6--|--x----x----x----x----------x--x---x---|
|---6----6----x----x-------x----x--x--|--6----6----6----9----------9--12--12--|
|-------------7----6-------6----6--6--|---------------------------------------|


Bridge

|----------------------------------------------------------------------------------------|
|----------------------------------------------------------------------------------------|
|----------------------------------------------------------------------------------------|
|----------------------------------------------------------------------------------------|
|----0----0-------0-------0-------0-------------0----0-------0-------0-------0-----------|
|----0----0-------0-------0-------0-----0--1----0----0-------0-------0-------0-----0--1--|
    [..............................]           [...............................]

|------------------------------------------------------------------------------------|
|------------------------------------------------------------------------------------|
|------------------------------------------------------------------------------------|
|-------------------------3------------------------------------------3---------------|
|----0-----3------2-------1----0---3---2-----0-------3-------2-------1----0---3---2--|
|----0-----3------2------------0---3---2-----0-------3-------2------------0---3---2--|


outro

repeat bridge but slower. listen to the cd for speed
then play this part.

|----------------------------------------------------------------------------------| play untill end of song
|----------------------------------------------------------------------------------|
|----------------------------------------------------------------------------------|
|----------------------------------------------------------------------------------|
|----5----2----1----2----1----0----5----2----1----2----1----0----5----2----0----2--|
|----5----2----1----2----1----0----5----2----1----2----1----0----5----2----0----2--|

Brill song! if you have note pad you can copy and paste it into there!


Lyrics

Break!,Pick up the pace
Enemy show me what you wanna be. I can handle anything, even if i can't handle
you! readily either way it better be. Don't you fucking pity me. Get up, get 
off. What the hell am i sayin? i don't know about mallevolent, sure as hell
decadent. i want some body to step up, step off.

Fuck this shit, i'm sick of it. you're go-in down, this is a war!

who the fuck am i to criticize your twisted state of mind? you're leav'in me 
suspect, i'm leav'in you grotesque. feels like a burn from which you never 
learn. cause and effect, you jealous ass. press your face against the glass.
suffer

Fuck this shit, i'm sick of it. you're go-in down, this is a war!

I've just begun. it's about that time, got'ta get mine. i've just begun it's about
that time gotta get mine.I've just begun. it's about that time, got'ta get mine.
I've just begun. it's about that time, got'ta get mine!

you can't kill me cus i'm already inside you! you can't kill me cus i'm already inside you!
Sick
Ha ha ha
Comments