Slipknot - Scream Chords & Tabs

 

Scream Chords & Tabs

Slipknot Chords & Tabs

Version: 3 Type: Tab 0 ratings
1 star 2 stars 3 stars 4 stars 5 stars
comments

Scream Tab

   
Scream by Slipknot
Tabbed by : Erick Beltran

This is a kick ass song, only on the japanese release of Vol. 3. It's not too hard to
learn. This is my first tab. I worked hard on it and corrected some of the other tabs
I've seen of this song and ear transcribed whatever parts I could. Hope You Like It



Tuning B,F#,B,E,G#,C#
Legend
\ - Trem
. - Palm Mute
x - Muted
/ - Slide
p - Pulloff
b - Bend
h - Hammer On
* - Harmonic

Intro (Guitar 1)
C#|---------|---------|---------|---------|
G#|---------|---------|---------|---------|
E |---------|---------|---------|---------|
B |-------0-|---------|---------|---------|
F#|--3-2----|-3-2-3-4-|--3-2--4-|-6-5-6-7-|
B |--3-2----|-3-2-3-4-|--3-2----|-6-5-6-7-|
    . .   \   . . . .    . .   \  . . . .

Intro 2 (Both Guitars)
C#|---------|---------|---------|---------|
G#|---------|---------|---------|---------|
E |---------|---------|---------|---------|
B |---------|---------|---------|---------|
F#|--3-2----|-3-2-3-4-|--3-2----|-6-5-6-7-|
B |--3-2--6-|-3-2-3-4-|--3-2--5-|-6-5-6-7-|
     . .  \   . . . .    . .  \   . . . .

Fill (Both Guitars)
C#|------------|-------------||---------|
G#|------------|-------------||---------|
E |------------|-------------||---------|
B |------------|-------------||---------|
F#|------------|-------------||-7-7-9-9-|
B |0-0-6-0-6-0-|-6-0-6-0-6-0-||-7-7-9-9-|
                                . .
Verse  (Both Guitars)           
C#|---------|---------|---------||-----|
G#|---------|---------|---------||-----|
E |---------|---------|---------||-----|
B |---------|---------|---------||-----|
F#|---------|---------|---------||-5-7-|
B |-0-0-0-0-|-0-0-0-0-|-0-1-0-1-||-5-7-|

Pre-Chorus (Both Guitars)
G#|---------|---------|---------------|
E |---------|---------|-6-6-6-6/9-9-9-|
B |---------|---------|-x-x-x-x---x-x-|
F#|---------|---------|-4-4-4-4/7-7-7-|
B |-0-0-6-0-|-6-0-6-0-|---------------|
[ Tab from: http://www.guitartabs.cc/tabs/s/slipknot/scream_tab_ver_3.html ]
Chorus (Both Guitars)
C#|-------|---------------|
G#|-------|---------------|
E |-------|-8/9--6/7--4/5-|
B |-------|-x----x----x---|
F#|-7-7-7-|-6/7--4/5--2/3-|
B |-7-7-7-|---------------|

Interlude
Riff 1 (Guitar 1)
C#|---xx-------------x-|---xx-------------x-|
G#|---xx-------------x-|---xx-------------x-|
E |-5-xx-5-6-7-5-6-4-x-|-3-xx-3-4-5-2-3-1-x-|
B |--------------------|--------------------|
F#|--------------------|--------------------|
B |--------------------|--------------------|

Riff 2 (Guitar 2)
C#|---------|----------|---------|
G#|---------|----------|---------|
E |---------|----------|---------|
B |--0---/3-|-/5-3*-0-|--3-/10*-|
F#|---------|----------|---------|
B |---------|----------|---------|

Riff 3 (Guitar 2)
C#|----------------|
G#|----------------|
E |----------------|
B |------------3*--|
F#|------3*--------|
B |-3*-------------|

Riff 4 (Both Guitars)
C#|---xx-------------x-|---xx-------------x-|
G#|---xx-------------x-|---xx-------------x-|
E |-5-xx-5-6-7-5-6-4-x-|-3-xx-3-4-2-2-3-1-x-|
B |--------------------|--------------------|
F#|--------------------|--------------------|
B |--------------------|--------------------|

Riff 5 (Guitar 1)
C#|-9-12-9-12-|-13-10-12-10-|-8-10-8-10-|-10-7-8-7-|
G#|-----------|-------------|-----------|----------|
E |-----------|-------------|-----------|----------|
B |-----------|-------------|-----------|----------|
F#|-----------|-------------|-----------|----------|
B |-----------|-------------|-----------|----------|
    \  \ \  \   \   \  \  \   \  \ \  \    \ \ \ \     

Riff 6 (Guitar 2)
C#|-----------|----------|-----------|
G#|-----------|----------|-----------|
E |-----------|----------|-----------|
B |-----0-----|----------|-----------|
F#|-3-4---3-4-|----------|-4-6-5-6-7-|
B |-3-4---3-4-|----------|---6-5-6-7-|             
    . . \ . .              \ . . . .

Modified Chorus (Both Guitar)
C#|-------|-------------------|
G#|-------|-------------------|
E |-------|-8/9--10/11--12/13-|
B |-7-7-7-|-x-----x------x----|
F#|-7-7-7-|-6/7---8/9---10/11-|
B |-7-7-7-|-------------------|

Outro
C#|---------|---------|-----|
G#|---------|---------|-----|
E |---------|---------|-----|
B |---------|---------|-----|
F#|---------|---------|-7-9-|
B |-0-0-0-0-|-0-0-0-0-|-7-9-|


Questions and Request -> sonic91745@yahoo.com
Comments