Slipknot - Scream Chords & Tabs

 

Scream Chords & Tabs

Slipknot Chords & Tabs

Version: 2 Type: Tab 0 ratings
1 star 2 stars 3 stars 4 stars 5 stars
comments

Scream Tab

   
Band: Slipknot
Song: Scream
Tuning:C#,G#,E,B,F#,B

(tr)-tremolo
*-harmonic
h-hammer-on
/-slide
P.M.-palm mute
x-dead note

Intro (gtr. 1)

C#|-------------------------------------------|
G#|-------------------------------------------|
E |-------------------------------------------|
B |-------0(tr)---------------0(tr)-----------|
F#|--3-2---------3-2-3-4-3-2---------7-6-7-8--|
B |--3-2---------3-2-3-4-3-2---------7-6-7-8--|
P.M  - -  -      - - -   - -  -      - - -

Intro (gtr. 2)

C#|-------------------------------------------|
G#|-------------------------------------------|
E |-------------------------------------------|
B |-------------------------------------------|
F#|--3-2---------3-2-3-4-3-2---------7-6-7-8--|
B |--3-2--7(tr)--3-2-3-4-3-2-7(tr)--7-6-7-8--|
     - -  -      - - -   - -  -      - - - 
Pre-verse

(SCREAM!!)
C#|-----------------------|
G#|-----------------------|
E |-----------------------|
B |-----------------------|
F#|-----------------------|
B |--0-0-6h06h0-6h0-0-6--|

Verse

(Fell forth...)
C#|-------------------------|-----------|
G#|-------------------------|-----------|
E |-------------------------|-----------|
B |-------------------------|-----------|
F#|-------------------------|-0-3-6-----|
B |--0-0-0--0-0--3-0-3-0-0--|-0-3-6-----|
P.M. - - -  - -  - - - - -    -

C#|-------------------------|--------|
G#|-------------------------|--------|
E |-------------------------|--------|
B |-------------------------|--------|
F#|-------------------------|-0-3-6--|
B |--0-0-0--0-0--3-0-3-0-0--|-0-3-6--|
P.M.                          - 
Break

(scream!! Scream like you..)

C#|------------------------------------|
G#|------------------------------------|
E |-------------------------999--//12--|
B |-------------------------xxx-----x--|
F#|-------------------------777--//10--|
B |--0-0-6h06h0-6h0-0-6---------------|

Verse

C#|-------------------------|
G#|-------------------------|
E |-------------------------|
B |-------------------------|
F#|-------------------------|
B |--0-0-0--0-0--3-0-3-0-0--|

C#|-------------------------|---------|
G#|-------------------------|---------|
E |-------------------------|---------|
B |-------------------------|---------|
F#|-------------------------|--0-3-6--|
B |--0-0-0--0-0--3-0-3-0-0--|--0-3-6--|
P.M.                           -

Break
[ Tab from: http://www.guitartabs.cc/tabs/s/slipknot/scream_tab_ver_2.html ]
C#|------------------------------------|
G#|------------------------------------|
E |-------------------------999--//12--|
B |-------------------------xxx-----x--|
F#|-------------------------777--//10--|
B |--0-0-6h06h0-6h0-0-6---------------|

Chorus

(All our lives..)
C#|----------------------|
G#|----------------------|
E |-------------9--8--6--|
B |--10-10-10---x--x--x--|
F#|--10-10-10---7--6--4--|
B |--10-10-10------------|

Bridge (theres more to it,jus aint figured it out yet).

C#|-----|
G#|-----|
E |-----| some effect is used here,
B |-----| then it fades out.
F#|--0--|
B |-----|

C#|-----------------------------------|
G#|-----------------------------------|
E |-----------------------------------|
B |--0---/3--/5-3*-0---3------//10*--|
F#|-----------------------------------|
B |-----------------------------------|

C#|------------------------------------|
G#|------------------------------------|
E |------------------------------------|
B |------------------------------------|
F#|--3-2---------3-2----------7-6-7-8--|
B |--3-2--7(tr)-3-2--7(tr)--7-6-7-8--|
P.M  - -  -      - -   -      - - - 

C#|-------------------------------------------|
G#|-------------------------------------------|
E |-------------------------------------------|
B |-------------------------------------------|
F#|--3-2---------3-2-3-4-3-2---------7-6-7-8--|
B |--3-2-7(tr)--3-2-3-4-3-2--7(tr)--7-6-7-8--|
P.M  - -  -      - - - - - -  -      - - - -


C#|-------------------------------------------|
G#|-------------------------------------------|
E |-------------------------------------------|
B |-------------------------------------------|
F#|--3-2---------3-2-3-4-3-2---------7-6-7-8--|
B |--3-2--7(tr)--3-2-3-4-3-2-7(tr)--7-6-7-8--|
     - -  -      - - -   - -  -      - - -

Chorus

(All our lives..)
C#|----------------------|
G#|----------------------|
E |-------------9--8--6--|
B |--10-10-10---x--x--x--|
F#|--10-10-10---7--6--4--|
B |--10-10-10------------|

End

C#|-------------------------|
G#|-------------------------|
E |-------------------------|
B |-------------------------|
F#|-------------------------|
B |--0-0-0--0-0--3-0-3-0-0--|

C#|---------------------|
G#|---------------------|
E |---------------------|
B |---------------------|
F#|--------------0-3-6--|
B |--0-0-0--0-0--0-3-6--|
P.M.             -   

i thinkt thats about it,theres jus the rest of the bridge to figure out mostly,
theres another "scream" tab on here n i jus took that,re-worked it,re-arranged
etc etc to the best i could do for the moment,many props to that person who done
the 1st "scream" tab on here


this sounds right to me

im out!!
Comments