Slipknot - Pulse Of The Maggots Chords & Tabs

 

Pulse Of The Maggots Chords & Tabs

Slipknot Chords & Tabs

Version: 9 Type: Tab 0 ratings
1 star 2 stars 3 stars 4 stars 5 stars
comments

Pulse Of The Maggots Tab

   
-|~PULSE OF THE MAGGOTS~|
------------------------------------------------------------------------------------------
Artist: SliPKnoT
Song: Pulse OF The Maggots
Album: Vol.3 The Subliminal Verses
Transcribed by: Amir Dhillon AKA PLOP
Email: screwedupsanity@hotmail.com
By The Way:If your goin to print,copy and pate this into word and change font to arial
so it fits on the page!

~ - Vibrato
. - Tremolo Pick
/ - Slide
p - Pull off
x - Palm Mute
ph. - Pinch Harmonic

Tuning: B F# B E G# C# (Drop-B)

INTRO
-------------------------------------------------------------------------------|
-------------------------------------------------------------------------------|
-------------------------------------------------------------------------------|
-------------------------------------------------------------------------------|
-------------------------------------------------------------------------------|
-0---0---------------0---1-1-1-1-0---0---0---3///////////13~~~~~---------------|
 x   x               x   x x x x x   x   x

-------------------------------------------------------------------------------|
-------------------------------------------------------------------------------|
-------------------------------------------------------------------------------|
-------------------------------------------------------------------------------|
-------------------------------------------------------------------------------|
-0---0---------------0---1-1-1-1-0---0---0---3///////////13p-12----------------|
 x   x               x   x x x x x   x   x

-------------------------------------------------------------------------------|
-------------------------------------------------------------------------------|
-----------------------------------------------------------------3-----4-----5-|
-----------------------------------------------------------------3-----4-----5-|
-13p-12--13p-12--13p-12--13p-12--13p-12--13p-12--13p-12--13------1-----2-----3-|
-------------------------------------------------------------------------------|
                                                                 x     x     x

-------------------------------------------------------------------------------|
-------------------------------------------------------------------------------|
-------------------------------------------------------------------------------|
-------------------------3-----3-----3-----4-----3-----1-----------------------|
-1-1-1---3-3-3---4-4-4---3-----3-----3-----4-----3-----1-----------------------|
-------------------------3-----3-----3-----4-----3-----1-----------------------|
 x x x   x x x   x x x   x     x     x     x     x     x

VERSE
-------------------------------------------------------------------------------|
-------------------------------------------------------------------------------|
-------------------------------------------------------------------------------|
-----------------------------------------------------0---1---3---4---3---1---0-|
-----------------------------------------------------0---1---3---4---3---1---0-|
-0---0---------------0---1-1-1-1-0---0---------------0---1---3---4---3---1---0-|
 x   x               x   x x x x x   x

-------------------------------------------------------------------------------|
-------------------------------------------------------------------------------|
-------------------------------------------------------------------------------|
-------------------------------------------------------------------------------|
-------------------------------------------------------------------------------|
-----0---1-1-1-1-0---0---0---3///////////13------------------------------------|
     x   x x x x x   x   x

-------------------------------------------------------------------------------|
-------------------------------------------------------------------------------|
-------------------------------------------------------------------------------|
-----------------------------------------------------0---1---3---4---3---1---0-|
-----------------------------------------------------0---1---3---4---3---1---0-|
-0---0---------------0---1-1-1-1-0---0---------------0---1---3---4---3---1---0-|
 x   x               x   x x x x x   x

-------------------------------------------------------------------------------|
-------------------------------------------------------------------------------|
-------------------------------------------------------------------------------|
-------------------------------------------------------------------------------|
-------------------------------------------------------------------------------|
-----0---1-1-1-1-0---0---0---3///////////13p-12--------------------------------|
     x   x x x x x   x   x

CHORUS
-------------------------------------------------------------------------------|
-------------------------------------------------------------------------------|
-------------------------------------------------------------------------------|
-6-----------5-------6---3-----------3-----------1---0-------------------------|
-6-----------5-------6---3-----------3-----------1---0-------------------------|
-6-----------5-------6---3-------5---3-------0---1p--0-------------------------|
                                 x           x

REFRAIN
Right Guitar
-------------------------------------------------------------------------------|
-------------------------------------------------------------------------------|
-------------------------------------------------------------------------------|
-------------------------------------------------------------------------------|
---------3-----------2-------3---0-------2---0---------------------------------|
-------------------------------------------------4-------1p--0-----------------|
         ................................................

Left Guitar
-------------------------------------------------------------------------------|
-------------------------------------------------------------------------------|
---------10----------9-------10--7-------9---7---------------------------------|
-------------------------------------------------9-----------------------------|
-------------------------------------------------------------------------------|
-------------------------------------------------------------------------------|
         ..............................................


[ Tab from: http://www.guitartabs.cc/tabs/s/slipknot/pulse_of_the_maggots_tab_ver_9.html ]
C#|-22-15-18p16-17h19-20-23-19h22----------19-19-19-22p19----16-16-20-17-17-20-|
G#|-------------------------------19-22p19-------------------------------------|
E |-------------------------------------------------------21-------------------|
B |----------------------------------------------------------------------------|
F#|----------------------------------------------------------------------------|
B |----------------------------------------------------------------------------|
                                                                B5
C#|-16-16-19-------------------------------------18-20\13----/21-19-/21---x--x-|
G#|-------------------19-20\18-------18----20p18----------13-------------------|
E |----------17-16-16----------16/18----20-----------------------------19------|
B |----------------------------------------------------------------------------|
F#|----------------------------------------------------------------------------|
B |----------------------------------------------------------------------------|

C#|-23-23-23b27----------------------------------------------------------------|
G#|-------------15-15b19r17b19r17b19r17b19r15-15b19r17b19r17b19r17b19r17-------|
E |----------------------------------------------------------------------------|
B |----------------------------------------------------------------------------|
F#|----------------------------------------------------------------------------|
B |----------------------------------------------------------------------------|
							
C#|----------------------------------------------------------------------------|
G#|-15b19r17b19r17b19r15-15-15b19r17b19r17b19r15-15h17-15-------15-------------|
E |-------------------------------------------------------17p16----17-15-14----|
B |-------------------------------------------------------------------------17-|
F#|----------------------------------------------------------------------------|
B |----------------------------------------------------------------------------|
				
C#|-----------------------------------------------------------12h15-18h15------|
G#|--------------------------------------------------------14-------------17---|
E |--------------------------------------------------12h15---------------------|
B |-15-17p15-17p15-------17p16-12p14-10-12p9------14---------------------------|
F#|----------------18p16---------------------10p8------------------------------|
B |----------------------------------------------------------------------------|

C#|-------------------------/18-15-------------------15-18/21p18---------------|
G#|-------------------17h17--------17----------17-17-------------20p17---------|
E |-18p15----------15-----------------18-15----------------------------18------|
B |-------17p15-17--------------------------17----------------------------20---|
F#|----------------------------------------------------------------------------|
B |----------------------------------------------------------------------------|
						
C#|-21p18-21p18-------------------------------------------18h21----------------|
G#|-------------20p17----------20-------------------------------20p17----------|
E |----------------------18h21----21p18----18h21b24-21b24----------------18-21-|
B |-------------------20----------------20----------------------------20-------|
F#|----------------------------------------------------------------------------|
B |----------------------------------------------------------------------------|
		      
C#|----------------------------------------------------------------------------|
G#|-20-------------------------------------------------------------------------|
E |----21----18-21-19----------------------10----------10-10-12-12-14-14-12-10-|
B |-------20----------8-8-10-8-10-10-11-11----11-10-11-------------------------|
F#|----------------------------------------------------------------------------|
B |----------------------------------------------------------------------------|

C#|-------------------12-12-------12-12-17-15-13-12-13-12----15-18-17-18-15-18-|
G#|----15-13-15-13-12-------15-13-------------------------15-------------------|
E |-12-------------------------------------------------------------------------|
B |----------------------------------------------------------------------------|
F#|----------------------------------------------------------------------------|
B |----------------------------------------------------------------------------|
			    C#dim5
C#|-14-18-15-18-17-18-15-18-14-15-17-15-14-------------------------------------|
G#|----------------------------------------17-15-14----------------------------|
E |----------------------------------------------------------------------------|
B |----------------------------------------------------------------------------|
F#|----------------------------------------------------------------------------|
B |----------------------------------------------------------------------------|


SOLO BACKING
-------------------------------------------------------------------------------|
-------------------------------------------------------------------------------|
-3---5---3---6-----------------------------------------------------------------|
-2---4---2---5-----------------------------------------------------------------|
-1///3\\\1///4-------4---4---4---4---4---4---4---4---4---4---4-----------------|
-------------------------------------------------------------------------------|
                     x   x   x   x   x   x   x   x   x   x   x

-------------------------------------------------------------------------------|
-------------------------------------------------------------------------------|
-3---5---3---6-------------------------------3---------------------------------|
-2---4---2---5---------------0---------------2---------------------------------|
-1///3\\\1///4-------4---4---0---------------1-------1---1---1-----------------|
-----------------------------0-------0---0-------------------------------------|
                     x   x           x   x           x   x   x

-------------------------------------------------------------------------------|
-------------------------------------------------------------------------------|
-3---5---3---6---6-------6-------6-------6-------6-------6---------------------|
-2---4---2---5-------5-------5-------5-------5-------5-------5-----------------|
-1///3\\\1///4-----------------------------------------------------------------|
-------------------------------------------------------------------------------|

-------------------------------------------------------------------------------|
---------------------------------------------5~~~~~~~~~~~~~~~~~~~--------------|
-3---5---3---6-------------------------------3~~~~~~~~~~~~~~~~~~~--------------|
-2---4---2---5---------------0-------------------------------------------------|
-1///3\\\1///4-------4---4---0-------------------------------------------------|
-----------------------------0-------0---0-------------------------------------|
                     x   x           x   x

POST SOLO
-------------------------------------------------------------------------------|
-------------------------------------------------------------------------------|
-------------------------------------------------------------------------------|
-----1-----------------------------------------------1-------3-------4---------|
-----1-----------------------------------------------1-------3-------4---------|
-0---1---0---3~~~~~~-----0---0---0---0---3~~~~~~-----1-------3-------4---------|
 x       x   ph.         x   x   x   x   ph.
Comments