Slipknot - Pulse Of The Maggots Chords & Tabs

 

Pulse Of The Maggots Chords & Tabs

Slipknot Chords & Tabs

Version: 7 Type: Tab 0 ratings
1 star 2 stars 3 stars 4 stars 5 stars
comments

Pulse Of The Maggots Tab


E----------16-17h19-20-23-19h22----------19-19-19h22p19----16-16h20-17-17h20|
B-------17----------------------19-22p19----------------21------------------|
G-16-16---------------------------------------------------------------------|
D---------------------------------------------------------------------------|
A---------------------------------------------------------------------------|
D---------------------------------------------------------------------------|

E-16-16-19-----------------------------------19-----------23^23^23^-------|
B------------------19-20/18-------18---20p18----18---20p18----------15-15-|
G----------17-16-16---------16/18---20------------20----------------------|
D-------------------------------------------------------------------------|
A-------------------------------------------------------------------------|
D-------------------------------------------------------------------------|

E-------------------------------|
B---17b~~~-17b~~-17b~~-15h17----|
G-------------------------------|
D-------------------------------|
A-------------------------------|
D-------------------------------|
[ Tab from: http://www.guitartabs.cc/tabs/s/slipknot/pulse_of_the_maggots_tab_ver_7.html ]
E-------------------------------------------------------------------------|
B-15-------15-------------------------------------------------------------|
G----17p16----17p15p14----------------------------------------------------|
D----------------------17p15h17p15h17p15h17------17p16-12h14p10h12p9------|
A-------------------------------------------18p16--------------------10h8-|

E------------12h15/18p15----------------------/18p15-------------15h18/21-|
B----------14-----------17---------------14h17------17------17-17---------|
G-----12h15---------------18p15--------15-------------18p15---------------|
D--14--------------------------17p15h17--------------------17-------------|
A-------------------------------------------------------------------------|
D-------------------------------------------------------------------------|

E-----------21p18h21p18---------------18h21----------------------------|
B-20p17----------------20p17-------20------20p17-------20-21-----------|
G------18---------------------18h21---------------18h21----------18-19-|
D--------20-----------------20------------------20----------20p18------|
A----------------------------------------------------------------------|
D----------------------------------------------------------------------|

thats all i got
Comments