Slipknot - Pulse Of The Maggots Chords & Tabs

 

Pulse Of The Maggots Chords & Tabs

Slipknot Chords & Tabs

Version: 2 Type: Bass Tab 0 ratings
1 star 2 stars 3 stars 4 stars 5 stars
comments

Pulse Of The Maggots Bass Tab

-----------------------------------------------------------------------------
                             Pulse Of The Maggots - Slipknot
-----------------------------------------------------------------------------
Tabbed by: Andu Needle
E-mail: sulfur_in_my_lungs@yahoo.com

Intro:

E |-----------------------------------------------------|
B |-----------------------------------------------------|
F#|---------------6-------------------------------------|
B |-00--0111-0003---------------------------------------|(x2)

E |-----------------------------------------------------|
B |-----------------------------------------------------|
F#|-----------------------------------------------------|
B |-8787878787878787-000000000321-----------------------|

E |-----------------------------------------------------|
B |-----------------------------------------------------|
F#|--------------6--------------------------------------|
B |-00-0111-0003----------------------------------------|(x8)

E |-----------------------------------------------------|
B |-----------------------------------------------------|
F#|-----------------------------------------------------|
B |-00-65-63-65-010-------------------------------------|

Verse:

E |-----------------------------------------------------|
B |-----------------------------------------------------|
F#|-------------------------------6---------------------|
B |-00--011100--0134310-0111-0003-----------------------|(x4)

Chorus:
[ Tab from: http://www.guitartabs.cc/tabs/s/slipknot/pulse_of_the_maggots_btab_ver_2.html ]
E |-----------------------------------------------------|
B |-----------------------------------------------------|
F#|-----------------------------------------------------|
B |-00-65-63-65-010-------------------------------------|(x4)

Little break before the second verse:

E |-----------------------------------------------------|
B |-----------------------------------------------------|
F#|---------------6-------------------------------------|
B |-00--0111-0003---------------------------------------|

Verse 2 is the same as the first one!
Chorus 2 is the same as the first one!

"If you understand":

E |-----------------------------------------------------|
B |-----------------------------------------------------|
F#|-3333-2222-00000000----------------------------------|
B |-----------------------------------------------------|(x4)

Solo:

E |-----------------------------------------------------|
B |-----------------------------------------------------|
F#|-1314-444-44444444--1314-44------1-111---------------|
B |----------------------------0-00---------------------|(x4)

"Say it again":

E |-----------------------------------------------------|
B |-----------------------------------------------------|
F#|-----------------------------------------------------|
B |-0103-0003-1-3-4-------------------------------------|(x8)

Verse 3 is like the others!
Chorus 3 is like the others!
"If you understand" part is the same as the other!
After the second "If you understand" part it comes a part which is basically the 
"Say it again" part without vocals",
"Say it again" part is the same as the other!
Comments