Slipknot - Prosthetics Chords & Tabs

 

Prosthetics Chords & Tabs

Slipknot Chords & Tabs

Version: 2 Type: Tab 0 ratings
1 star 2 stars 3 stars 4 stars 5 stars
comments

Prosthetics Tab

   
SLIPKNOT - Prosthetics

Tabbed by Roland Muntoiu

Tuning; Drop D, Down 1½ step (B F# B E G# C#)

Okey, people. The reason i tabbed this song is because it simply is a kick-ass song
and because there are way too few tablatures of it spead around the net. 
So here it goes!
P.S: The absolute intro of this song isn't played on the guitar. I think,
judging from their live performance of this song, Mick Thompson seemingly does nothing
on his guitar, it probably means that the sampler guy is playing it.

Guitar 2; Intro
C#-17--17--17--17--17--17--17--17--18--18--18--18--18--18--18--18---
G#---15--15--15--15--15--15--15--15--14--14--14--14--14--14--14--14-
E-------------------------------------------------------------------
B-------------------------------------------------------------------
F#------------------------------------------------------------------
B-------------------------------------------------------------------
[ Tab from: http://www.guitartabs.cc/tabs/s/slipknot/prosthetics_tab_ver_2.html ]
Guitar 2; Post-intro
C#-5------13-
G#-3----2-11-
E------------
B------------                                            EXTREMELY unsure about this one,
F#-----------  						 since the sole purpose of the guitar
B------------						 at this part is to make funny noise.
                                                         Listen to the song and switch the 13/11
                                                         against anything else that makes a high-
						         pitched screech if you dont like the sound
 							 of it.
Guitar 1; Verse
C#-----------------------------------------------------------------
G#-----------------------------------------------------------------
E------------------------------------------------------------------ The really strange thing about this is that
B------------------------------------------------------------------ in the song, they go a half-step LOWER than the 
F#----------------------------------------------------------------- tuning in the rest of the song, but for simplifying
B--0-0-0-0-0-0-0-0-0-0-0-0-0-0-0-0-1-1-1-1-1-1-1-1-1-1-1-1-1-1-1-1- reasons, i've switched the decrease for an increase
								    instead. Sounds good that way too. 

Guitar 2; Verse
C#---------------
G#---------------
E----------------
B----------------					 This guitar just follows the bass, 
F#---------------					 though most people dont even hear it because
B--4-3-0-3-2-1-0-					 it sort of fades away with all the other 
							 sounds in the background... IT IS THERE THOUGH!
							 Make no mistake! (NOTE! This is the same riff
							 as the interlude/outro, just take away the 1 
							 at the end.)

Both Guitars; Pre-chorus
C#---------------------------------------------------
G#---------------------------------------------------
E----------------------------------------------------
B--0--0-0-1-0--0--0-0-1-0--1--0-0-1-0--1--0-0-1-0--0-
F#-0--0-0-1-0--0--0-0-1-0--1--0-0-1-0--1--0-0-1-0--0-
B--0--0-0-1-0--0--0-0-1-0--1--0-0-1-0--1--0-0-1-0--0-

Both Guitars; Chorus
C#-----------------------------
G#-----------------------------
E------------------------------
B--8-7-0/1-1-1/3-3-3-3/4-3-(0)-
F#-8-7-0/1-1-1/3-3-3-3/4-3-(0)-
B--8-7-0/1-1-1/3-3-3-3/4-3-(0)-

Guitar 1; Second part of chorus
C#---------------------------
G#---------------------------
E----------------------------
B--8-7-0/1-1-1/3-3-3-3/4-3-0-
F#---------------------------
B----------------------------

Guitar 1; First part of interlude
C#---------------------------------
G#-6/7/6/7/6/7/6/7/6/7/6/7/6/7/6/7-
E----------------------------------
B----------------------------------
F#---------------------------------                     Just tap the string with your "fret-hand"s
B----------------------------------                     middlefinger.

Both Guitars; Interlude & Outro
C#-----------------
G#-----------------
E------------------
B--4/3-0-3-2-1-0-1-
F#-4/3-0-3-2-1-0-1-
B--4/3-0-3-2-1-0-1-

There y'all go! Another song tabbed out by Me! Hope you will enjoy this as much as i've enjoyed
bringing it to you. 

Comments, corrections (Against all odds :D)? Send it all to mr__rolex@hotmail.com (2 UNDERLINES!)

Comments