Slipknot - People Are Shit Chords & Tabs

 

People Are Shit Chords & Tabs

Slipknot Chords & Tabs

Version: 3 Type: Tab 0 ratings
1 star 2 stars 3 stars 4 stars 5 stars
comments

People Are Shit Tab

   
        BITCHIN' TABS

          URL: www.angelfire.com/goth/btab/
	EMAIL: btabmaster@hotmail.com

        THIS IS AN EXCLUSIVE TAB TO "BITCHIN' TABS"

 ----------------------------------------------------------------------------------------------

	     SONG: People=Shit
	     BAND: Slipknot
	    ALBUM: Iowa
   TRANSCRIBED BY: Chris Frazier (btabmaster@hotmail.com)
	     DATE: 08-07-2K1

 ----------------------------------------------------------------------------------------------

	TUNING: Drop D and down 1 and 1/2 step (B F# B E G# C#)

      Riff 1:
    C#|-------------------------------------|
    G#|-------------------------------------|
    E |-------------------------------------|
    B |-3p2--0-6p5--0-3p2--0-6p5--0-3-3-3-3-|
    F#|-3p2--0-6p5--0-3p2--0-6p5--0-3-3-3-3-|
    B |-3p2--0-6p5--0-3p2--0-6p5--0-3-3-3-3-|
     PM   -  -   -  -   -  -   -    - - - -

      Riff 2:
    C#|-------------------------|
    G#|-------------------------|
    E |-------------444-5-------|
    B |-000-1-000-1-444-5-333-2-|
    F#|-000-1-000-1-222-3-333-2-|
    B |-000-1-000-1-------333-2-|
     PM --- - --- - --- - --- -

      Riff 3:
    C#|------6b-|
    G#|---------|
    E |-3b------|
    B |---------|
    F#|---------|
    B |---------|
[ Tab from: http://www.guitartabs.cc/tabs/s/slipknot/people_are_shit_tab_ver_3.html ]
      Riff 4:
    C#|---------------------|
    G#|---------------------|
    E |---------------------| bend the 4 up 1/2 step
    B |---------------------|
    F#|---------------------|
    B |-0-1-0-1br--0-1-0-4b-|

      Riff 5:
    C#|----------------------|
    G#|----------------------|
    E |----------------------|
    B |-0-1-0-0-1--0-1-0-0-5-|
    F#|-0-1-0-0-1--0-1-0-0-5-|
    B |-0-1-0-0-1--0-1-0-0-5-|

      Riff 6:
    C#|------------------|
    G#|-3---4------------|
    E |---------4---3----|
    B |------------------|
    F#|------------------|
    B |------------------|

      Riff 7:
    C#|--------|
    G#|--------|
    E |--------|
    B |-1-0--0-|
    F#|-1-0--0-|
    B |-1-0--0-|
     PM - -  -

      Riff 8:
    C#|-----------------|
    G#|-----------------|
    E |-----------------|
    B |-0-1-1---0-1-2---|
    F#|-0-1-1---0-1-2---|
    B |-0-1-1---0-1-2---|

      Riff 9:
    C#|------------------|
    G#|------------------|
    E |------------------|
    B |-8-0-9-0--0-5-5-7-|
    F#|----------0-5-5-7-|
    B |----------0-5-5-7-|

      Riff 10:
    C#|-------------|
    G#|-------------|
    E |-------------|
    B |-1-1-1-1-1-2-|
    F#|-1-1-1-1-1-2-|
    B |-1-1-1-1-1-2-|
     PM - - - - - -

      Riff 11:
    C#|------------------|
    G#|------------------|
    E |------------------|
    B |------------------|
    F#|------------------|
    B |-8-0-9-0--0-5-5-7-|
     PM - - - -  - - - -

Comments