Slipknot - Opium Of The People Chords & Tabs

 

Opium Of The People Chords & Tabs

Slipknot Chords & Tabs

Version: 6 Type: Tab 0 ratings
1 star 2 stars 3 stars 4 stars 5 stars
comments

Opium Of The People Tab

   
opium of the people
tunin B F# B E G# C#

"/\" slides
"|" separate measures
"Pm" palm mute

|-----|---13-14-13-14-13-14----13-14-13-14----|----13-14-13-14-13-14----13-14-13-14----|
|-----|---------------------------------------|----------------------------------------|
|-----|---------------------------------------|----------------------------------------|
|-----|-0--------------------0--------------0-|--0-------------------0---------------0-|
|-----|-0--------------------0--------------0-|--0-------------------0---------------0-|
|--5/-|-0--------------------0--------------0-|--0-------------------0---------------0-|

|--13-14-13-14-13-14-13-14-13-14-13-14-13-14|-------14-14-15-17-17-15-14-14-------------|
|-------------------------------------------|-15-17-------------------------17-15-15-17-|
|-------------------------------------------|-------------------------------------------|
|-------------------------------------------|-------------------------------------------|
|-------------------------------------------|-------------------------------------------|
|-------------------------------------------|-------------------------------------------|

                                Pm.........................................................
|14-14-15-17-17-15-14-14-------|-----------------------------|----------------------------|
|------------------------17-15-|*----------------------------|---------------------------*|
|------------------------------|-----------------------------|----------------------------|
|------------------------------|-----------------------------|----------------------------|
|------------------------------|*-0-------------0----------0-|-0-------------0---------0-*|
|------------------------------|--0-3-4-3-4-3-4-0--3-4-3-4-0-|-0-3-4-3-4-3-4-0-3-4-3-4-0--|

|-13-14-13-14-13-14-13-14-13-14-13-14-13-14-13-14-|-16-14-13------------------------------|
|-------------------------------------------------|----------16-14-16-14-13---------------|
|-------------------------------------------------|-------------------------16-14-13-15-13|
|-------------------------------------------------|---------------------------------------|
|-------------------------------------------------|---------------------------------------|
|-------------------------------------------------|---------------------------------------|

-------------------------|----------------------|----------------------|----------------------|
-------------------------|----------------------|----------------------|----------------------|
-------------------------|----------------------|----------------------|----------------------|
-16-15-13-16-15-13-------|----------------------|----------------------|----------------------|
-------------------------|-0--4--1--0--5/-1-1-0-|-0--4--1--0--5/-1-1-0-|-0--4--1--0--5/-1-1-0-|
----------------------12/|-0--4--1--0-----1-1-0-|-0--4--1--0-----1-1-0-|-0--4--1--0-----1-1-0-|

|-----------------------||-------------|------------------|------------------|------------------|
|-----------------------||-------------|------------------|------------------|------------------|
|-----------------------||-------------|------------------|------------------|------------------|
|-----------------------||-------------|------------------|------------------|------------------|
|---4--1--0-------------||--5/-1-1-1-0-|--4-1-0--5/-1-1-0-|--4-1-0--5/-1-1-0-|--4-1-0--5/-1-1-0-|
|---4--1--0--4-5-6-7~~~~||-----1-1-1-0-|--4-1-0-----1-1-0-|--4-1-0-----1-1-0-|--4-1-0-----1-1-0-|

|--------------------------------|----------------------------------|
|--------------------------------|----------------------------------|
|--------------------------------|----------------------------------| X6 (Starts when  
|--------------------------------|----------------------------------|     singing starts)
|---4--1--0----------------------|----------------------------------|
|---4--1--0--4-5-6-7~~~~---------|-7-7-7-7/-1-1-1-1-0-0-0-0-8-8-8-8-|

Chorus:

|----------------------|----------------------|----------------------||-----------------------|
|----------------------|----------------------|----------------------||-----------------------|
|----------------------|----------------------|----------------------||-----------------------|
|----------------------|----------------------|----------------------||-----------------------|
|-0--4--1--0--5/-1-1-0-|-0--4--1--0--5/-1-1-0-|-0--4--1--0--5/-1-1-0-||---4--1--0-------------|
|-0--4--1--0-----1-1-0-|-0--4--1--0-----1-1-0-|-0--4--1--0-----1-1-0-||---4--1--0--4-5-6-7~~~~|

|-------------|------------------|------------------|------------------|----------------------|
|-------------|------------------|------------------|------------------|----------------------|
|-------------|------------------|------------------|------------------|----------------------|
|-------------|------------------|------------------|------------------|----------------------|
|--5/-1-1-1-0-|--4-1-0--5/-1-1-0-|--4-1-0--5/-1-1-0-|--4-1-0--5/-1-1-0-|---4--1--0------------|
|-----1-1-1-0-|--4-1-0-----1-1-0-|--4-1-0-----1-1-0-|--4-1-0-----1-1-0-|---4--1--0--4-5-6-7~~~|

part after chorus

pm....................................
|------------------------------------|
|------------------------------------|
|------------------------------------| x4
|--7-7-7-7-7-----------------8-8-8-8-|
|------------6-6-6-6-5-5-5-5---------|
|------------------------------------|

"Judgement day and im not prepared..."
|-----------------------------------|
|-----------------------------------|
|-----------------------------------|X2
|-7--------1----------0-----------8-|
|-7--------1----------0-----------8-|
|-7--------1----------0-----------8-|

"take a little bit of the top   i dont care just make it stop"
|-----------------------------||-------------------------------|
|-----------------------------||-------------------------------|
|-9-----12---------14------10-||-9--------12--------14---------|
|-----------------------------||-------------------------------|
|-7-----10---------12------8--||-7--------10--------12----/12\-|
|-----------------------------||-------------------------------|

" i    wont    give    -     ano  -  ther     soul____________________________
|------------------------------------------|-----------------------------------|
|------------------------------------------|-----15-------10-------13-------8--|
|------------------------------------------|-----------------------------------|
|-3----6\1-----0------------6\1-----0------|-12------7--------10-------5-------|
|-3----6\1-----0--0-0-3-3---6\1-----0--0-0-|-----------------------------------|
|-3----6\1-----0--0-0-3-3---6\1-----0--0-0-|-----------------------------------|

|--------------------------|
|-8-/-10---10-/-11---11~~~-|
|--------------------------|
|-5-/-7----7-/--8-----8----|
|--------------------------|
|--------------------------|

" i    wont    give    -     ano  -  ther     life____________________to  you
|------------------------------------------|-----------------------------------|
|------------------------------------------|-----15-------10-------13-------8--|
|------------------------------------------|-----------------------------------|
|-3----6\1-----0------------6\1-----0------|-12------7--------10-------5-------|
|-3----6\1-----0--0-0-3-3---6\1-----0--0-0-|-----------------------------------|
|-3----6\1-----0--0-0-3-3---6\1-----0--0-0-|-----------------------------------|

|--------------------------|
|-8-/-10---10-/-11---11~~~-|
|--------------------------|
|-5-/-7----7-/--8-----8----|
|--------------------------|
|--------------------------|


 "Stop          stop             stop           stop"
pm              .....                           ..... 
|--------------|----------------|--------------|----------------|
|--------------|----------------|--------------|----------------|
|--------------|----------------|--------------|----------------|
|-3--6\-1---0--|-------6\1---0--|-3--6\-1---0--|-------6\1---0--|
|-3--6\-1---0--|-3--3--6\1---0--|-3--6\-1---0--|-3--3--6\1---0--|
|-3--6\-1---0--|-3--3--6\1---0--|-3--6\-1---0--|-3--3--6\1---0--|

solo thing 

|-13-14-13-14-13-14-13-14-13-14-13-14-13-14-13-14|
|------------------------------------------------|
|------------------------------------------------|
|------------------------------------------------|
|------------------------------------------------|
|------------------------------------------------|

|-13--14--13--14--13--14-13-13--16-16--14-13----------------13-13------|
|--------------------------------------------16-14-13-14-16-------16-14|
|----------------------------------------------------------------------|
|----------------------------------------------------------------------|
|----------------------------------------------------------------------|
|----------------------------------------------------------------------|
[ Tab from: http://www.guitartabs.cc/tabs/s/slipknot/opium_of_the_people_tab_ver_6.html ]
|---------------------------------------------------|
|---------------------------------------------------|
|-10-11-10-11-10-11-10-11-10-11-10-11-10--11--10-11-|
|---------------------------------------------------|
|---------------------------------------------------|
|---------------------------------------------------|

|-----------------------------------------------------------------------------------------|
|-----------------------------------------------------------------------------------------|
|-10-11-13-13-10-12-14-14-12-14-14-12-13-15-13-13-14-16-14-13-11-10-11-10----/20\--10-11--|
|-------------------------------------------------------------------------13--------------|
|-----------------------------------------------------------------------------------------|
|-----------------------------------------------------------------------------------------|

|-13-14-13-14-13-14-13-14-13-14-13-14-13-14-13-14|
|------------------------------------------------|
|------------------------------------------------|
|------------------------------------------------|
|------------------------------------------------|
|------------------------------------------------|

|-16-14-13----------------------16-14-16-14-13-------------------------------------|
|----------16-14-13-13-14-16-13----------------16-14-13-11-13-11-------------------|
|----------------------------------------------------------------13--11-13--11-10--|
|----------------------------------------------------------------------------------|
|----------------------------------------------------------------------------------|
|----------------------------------------------------------------------------------|

|----------------------------------------------------|
|----------------------------------------------------|
|-10-11-10-11-10-11-10-11-10-11-10-11-10-11-10-10-11-|
|----------------------------------------------------|
|----------------------------------------------------|
|----------------------------------------------------|

|------------------------------------------------------|
|----------------------9-9-10-9-10--9-13-14-13-13-14\--|
|-10-10-11-10-11-10-11---------------------------------|
|------------------------------------------------------|
|------------------------------------------------------|
|------------------------------------------------------|

|--------------------------------------------------------|
|--------------------------------------------------------|
|--------------------------------------------------------|
|--------------------------------------------------------|
|-15-16-15-16-15-16-15-16-15-16-15-16-15-16-15-16-15-16--|
|--------------------------------------------------------|
|--------------------------------------------------------|
|
|play these two thing at the same time twice
|
|--------------------------------------------------------|
|--------------------------------------------------------|
|--------------------------------------------------------|
|--------------------------------------------------------|
|--------------------------------------------------------|
|--------------------------------------------------------|
|-0---------1----0--------0--------------1--------0------|


|--------------------------------------------------------|
|--------------------------------------------------------|
|--------------------------------------------------------|
|--------------------------------------------------------|
|-15-16-15-16-15-16-15-16-15-16-15-16-15-16-15-16-15-16--|
|--------------------------------------------------------|
|--------------------------------------------------------|
| play all this but then play the bottom part with the top part once
|
|--------------------------------------------------------|
|--------------------------------------------------------|
|--------------------------------------------------------|
|--------------------------------------------------------|
|--------------------------------------------------------|
|--------------------------------------------------------|
|-0---------1----0--------0--------------1--------0------|


|--------------------------------------------------------|
|--------------------------------------------------------|
|--------------------------------------------------------|
|--------------------------------------------------------|
|-15-16-15-16-15-16-15-16-15-16-15-16-15-16-15-16-15-16--|
|--------------------------------------------------------|
|--------------------------------------------------------|
|                                                         
|                                                         
|--------------------------------------------------------|
|--------------------------------------------------------|
|--------------------------------------------------------|
|--------------------------------------------------------|
|--------------------------------------------------------|
|--------------------------------------------------------|
|-0---------1----0--------0--------------1--------0------|

then 

|-----------------------------------|-----------------------------------------|
|-----------------------------------|-----------------------------------------|
|-----------------------------------|-----------------------------------------|
|-----------------------------------|-----------------------------------------| X4
|-----------------------------------|-----------------------------------------|
|-----------------------------------|-----------------------------------------|
|-0--1----0---0-----1--------0------|-0---1----0--------0-----1--------0------|


|------------------------------------------|-----------------------------------|
|------------------------------------------|-----15-------10-------13-------8--|
|------------------------------------------|-----------------------------------|
|-3----6\1-----0------------6\1-----0------|-12------7--------10-------5-------|
|-3----6\1-----0--0-0-3-3---6\1-----0--0-0-|-----------------------------------|
|-3----6\1-----0--0-0-3-3---6\1-----0--0-0-|-----------------------------------|


|--------------------------|------------------------------------------|
|-8-/-10---10-/-11---11~~~-|------------------------------------------|
|--------------------------|------------------------------------------|
|-5-/-7----7-/--8-----8----|-3----6\1-----0------------6\1-----0------|
|--------------------------|-3----6\1-----0--0-0-3-3---6\1-----0--0-0-|
|--------------------------|-3----6\1-----0--0-0-3-3---6\1-----0--0-0-|

|---10---------12----------13|-13\15--15\17--17\18--18\---|
|----------------------------|----------------------------|
|-7-----7-/-9------9-\-10----|-10\12--12\14--14\15--15\---|
|----------------------------|----------------------------|
|----------------------------|----------------------------|
|----------------------------|----------------------------|

" i       wont        give    another       thought____________________________
|--------------------|----------------------|-----------------------------------|
|--------------------|----------------------|--15--15--15--15/16\15----15/16\15-|
|--------------------|----------------------|-----------------------------------|
|-3----6\1-----0-----|-------6\1-----0------|--12--12--12--12/13\12----15/16\15-|
|-3----6\1-----0--0-0|-3-3---6\1-----0--0-0-|-----------------------------------|
|-3----6\1-----0--0-0|-3-3---6\1-----0--0-0-|-----------------------------------|
                                   
                                   "I    wont     give   any    more   of my 
|--------------------------------||------------------|----------------------|
|-15\-10-10-10-10/-11---11-----\-||------------------|----------------------|
|--------------------------------||------------------|-----------------12/--|
|-12\-7--7--7--7-/-8----8------\-||-3--6\1----0------|------6\1---0---------|
|--------------------------------||-3--6\1----0--0-0-|-3-3--6\1---0----10/--|
|--------------------------------||-3--6\1----0--0-0-|-3-3--6\1---0---------|

Hope_________________________ to              you"
|-----------------------------||------------------------------|
|-----15----------17------12--||------------------------------|
|-----------------------------||-12/144---15\14/15------\-----|
|--12-----12/-14----------10--||------------------------\-----|
|-----------------------------||-10/12----13\12/13------\-----|
|-----------------------------||------------------------------|

|--------------------------------------|-------------------------------------------|
|--------------------------------------|-------------------------------------------|
|--------------------------------------|-------------------------------------------|
|--------------------------------------|-------------------------------------------|X2
|--------------------------------------|-------------------------------------------|
|--------------------------------------|-------------------------------------------|
|-0----1----0----0-----1--------0------|-0----1----0--------0------1--------0------|



|-----------------------------------------|
|-----------------------------------------|
|-----------------------------------------| X4 till the end
|-----------------------------------------|
|-1--0--1--0--1--0----1--0---1--0--1--0---|
|-1--0--1--0--1--0----1--0---1--0--1--0---|
Comments