Slipknot - Opium Of The People Chords & Tabs

 

Opium Of The People Chords & Tabs

Slipknot Chords & Tabs

Version: 5 Type: Tab 0 ratings
1 star 2 stars 3 stars 4 stars 5 stars
comments

Opium Of The People Tab

Slipknot - Opium Of The People (Intro)
Any comments, questions or queries then mail me at ruled_by_secrecy_6@hotmail.com

Jim                                                                   
e|---------------------|---------------|-----------------------|---------------|
B|---------------------|---------------|-----------------------|---------------|
G|---------------------|---------------|-----------------------|---------------|
A|---------------------|---------------|-----------------------|---------------|
E|-2-------------------|-2-------------|-2-2-------------------|-2-------------|
A|-2-------------------|-2-------------|-2-2-------------------|-2-------------|

Mick
e|---10-11-10-11-10-11-|---10-11-10-11-|-----10-11-10-11-10-11-|---10-11-10-11-|
B|---------------------|---------------|-----------------------|---------------|
G|---------------------|---------------|-----------------------|---------------|
A|---------------------|---------------|-----------------------|---------------|
E|---------------------|---------------|-----------------------|---------------|
A|---------------------|---------------|-----------------------|---------------|

Jim
e|----------------------------------------------------------|
B|----------------------------------------------------------|
G|----------------------------------------------------------|
A|----------------------------------------------------------|
E|-2-2-let ring->-------------------------------------------|
A|-2-2-let ring->-------------------------------------------|

Mick
e|----------------10-11-10-11-10-11-10-11-10-11-10-11-10-11-|
B|----------------------------------------------------------|
G|----------------------------------------------------------|
A|----------------------------------------------------------|
E|----------------------------------------------------------|
A|----------------------------------------------------------|

Jim                                                       
e|--------5-6-8-10-8-6--------------5-6-8-10-8-6--------|
B|--4-6-8--------------10-8-6-4-6-8--------------10-8-6-|
G|------------------------------------------------------|
A|------------------------------------------------------|
E|------------------------------------------------------|
A|------------------------------------------------------|

Mick
e|----------8-10-11-13-11-10------------------8-10-11-13-11-10----------|
B|--8-10-11------------------13-11-10-8-10-11------------------13-11-10-|
G|----------------------------------------------------------------------|
A|----------------------------------------------------------------------|
E|----------------------------------------------------------------------|
A|----------------------------------------------------------------------|

[ Tab from: http://www.guitartabs.cc/tabs/s/slipknot/opium_of_the_people_tab_ver_5.html ]
Jim                                                                
e||-------------------------------|-------------------------------||
B||-------------------------------|-------------------------------||
G||-------------------------------|-------------------------------||
A||-------------------------------|-------------------------------||
E||--2--4-5-4-5-4-5-2--4-5-4-5-2--|--2--4-5-4-5-4-5-2--4-5-4-5-2--||
A||--2--4-5-4-5-4-5-2--4-5-4-5-2--|--2--4-5-4-5-4-5-2--4-5-4-5-2--||

Mick
e||-------------------------------|-------------------------------||
B||-------------------------------|-------------------------------||
G||-------------------------------|-------------------------------||
A||-------------------------------|-------------------------------||
E||--2--4-5-4-5-4-5-2--4-5-4-5-2--|--2--4-5-4-5-4-5-2--4-5-4-5-2--||
A||--2--4-5-4-5-4-5-2--4-5-4-5-2--|--2--4-5-4-5-4-5-2--4-5-4-5-2--||

Jim
e|----------------------------------------------------------|
B|----------------------------------------------------------|
G|----------------------------------------------------------|
A|----------------------------------------------------------|
E|-2-2-let ring->-------------------------------------------|
A|-2-2-let ring->-------------------------------------------|

Mick
e|----------------10-11-10-11-10-11-10-11-10-11-10-11-10-11-|
B|----------------------------------------------------------|
G|----------------------------------------------------------|
A|----------------------------------------------------------|
E|----------------------------------------------------------|
A|----------------------------------------------------------|

Jim and Mick                                                                       
e|-13-11-10-------------------------------------------------------------|
B|----------13-11-10-13-11-10-------------------------------------------|
G|----------------------------12-10-8-12-10-8---------------------------|
A|--------------------------------------------17-15-13-17-15-13-12-10-8-|
E|----------------------------------------------------------------------|
A|----------------------------------------------------------------------|


I think the main riff is this
Jim and Mick                                                     
e|-------------------------|-----------------------|
B|-------------------------|-----------------------|
G|-------------------------|-----------------------|
A|-------------------------|-----------------------|
E|-2--6--3--2--3--3--3--2--|--6--3--2--3--3--3--2--|
A|-2--6--3--2--3--3--3--2--|--6--3--2--3--3--3--2--|

e|-----------------------|-----------------------|
B|-----------------------|-----------------------|
G|-----------------------|-----------------------|
A|-----------------------|-----------------------|
E|--6--3--2--3--3--3--2--|--6--3--2--------------|
A|--6--3--2--3--3--3--2--|--6--3--2--6--7--8--9--|
Comments