Slipknot - Opium Of The People Chords & Tabs

 

Opium Of The People Chords & Tabs

Slipknot Chords & Tabs

Version: 1 Type: Bass Tab 0 ratings
1 star 2 stars 3 stars 4 stars 5 stars
comments

Opium Of The People Bass Tab

slipknot
the opium of the people
tabbed by modus operendi
jamie cushion

Riff 1
|----------------------------------------------|
|----------------------------------------------|
|----------------------------------------------|
|----------------------------------------------|
|-0-------------------------0--------------0---|

Riff 2
|---------------------------------|
|---------------------------------|
|---------------------------------|
|---------------------------------|
|-0--0-0-0-0-0-0--0--0-0-0-0--0-0-|

Riff 3
|--------------------------------|
|--------------------------------|
|--------------------------------|
|--------------------------------|
|--12\0----12/0----12/0----12/0--|
[ Tab from: http://www.guitartabs.cc/tabs/s/slipknot/opium_of_the_people_btab.html ]
Riff 4
|-----------------------------------------------------|
|-----------------------------------------------------|
|-----------------------------------------------------|
|-----------------------------------------------------|
|-0-4-1-0-0-0-0-4-1-0-0-0-0-4-1-0-0-0-0-4-1--4-5-6-7B-|

Riff 5
|----------------------------------|
|----------------------------------|
|----------------------------------|
|----------------------------------|
|-7-7-7-7-1-1-1-1-0-0-0-0-8-8-8-8--|

Riff 6
|--------------------------|
|--------------------------|
|--------------------------|
|--------------------------|
|-7--1--0--8---------------|

Riff 7
|--------------------------------|
|--------------------------------|
|--------------------------------|
|--------------------------------|
|-0--0-0--0--0-0--0--0-0--0--0-0-|


cudnt be assed to put in the order i'll let you do that
Comments