Slipknot - Only One Chords & Tabs

 

Only One Chords & Tabs

Slipknot Chords & Tabs

Version: 2 Type: Tab 0 ratings
1 star 2 stars 3 stars 4 stars 5 stars
comments

Only One Tab

-------------------------------------------------------------------------------
			     ONLY ONE (MFKR) - Slipknot
-------------------------------------------------------------------------------

By: James Low whatisaturnip@yahoo.co.uk    Tune Down One Step (DGCFAd)

e|---------------------------------------------------------------------------|
B|---------------------------------------------------------------------------|
G|---------------------------------------------------------------------------|
D|-----5---4-----------5-----------4-----------5---4-----------5-----------4-|
A|-2---3---2---5---4---3---4---3---2---3---2---3---2---5---4---3---4---3---2-|
E|-0-----------3---2-------2---1-------1---0-----------3---2-------2---1-----|

e|---|-----------------------------------------------------------------------|
B|---|-----------------------------------------------------------------------|
G|---|-----------------------------------------------------------------------|
D|---|-5-----------4----Funny-Jazz-Part-(Not-sure-of-notes-USE-WAH-WAH-PEDAL)|
A|-3-|-3---4---3---2---3-----------------------------------------------------|
E|-1-|-----2---1-------1-----------------------------------------------------|

e|---------------------------------------------------------------------------|
B|---------------------------------------------------------------------------|
G|---------------------------------------------------------------------------|
D|---------------------------------------------------------------------------|
A|-------------7---8---------------7---8---------------7---8---------------7-|
E|-3---0---0---5---6---3---0---0---5---6---3---0---0---5---6---3---0---0---5-|
[ Tab from: http://www.guitartabs.cc/tabs/s/slipknot/only_one_tab_ver_2.html ]
e|---------------------------------------------------------------|-----------|
B|---------------------------------------------------------------|-----------|
G|---------------------------------------------------------------|-play-3x---|
D|---------------------------------------------------------------|-----------|
A|-8---------------7---5---------------5---7---------------5---7-|-3---4---3-|
E|-6---1---0---3-----------1---0---3-----------1---0---3---------|-1---2---1-|

e|---------------|-----------------------------------------------------------|
B|---------------|-----------------------------------------------------------|
G|---------------|----play-4th-time------------------------------------------|
D|---------------|-----------------------------------------------------------|
A|-4---5---4---3-|-3---4---3---4---5---4-------------------------------------|
E|-2---3---2---1-|-1---2---1---2---3---2-------------------------------------|

e|---------------------------------------------------------------------------|
B|---------------------------------------------------------------------------|
G|---------------------------------------------------------------------------|
D|---------------------------------------------------------------------------|
A|-3---2---3---5---6---5---3---5---3---2---3---5---6---5---3---5-------------|
E|-1---0---1---3---4---3---1---3---1---0---1---3---4---3---1---3-------------|

===============================================================================

as i said before, i aint dont the jazzy part in the middle of the verse, but
you should use a wah wah pedal to get that effect. i couldnt be bothered to
go through where to palm mute, but any of you who have mate feed kill repeat
will know, and anyone who hasnt, its pretty similar to the newer version. im
pretty confident this is the right tuning, as most of the album is done in
drop c tuning (CGCFAd), so it would be easier to switch to the tuning i chose,
rather than going in drop d (DADGBe). but im probably wrong, so im not saying
this is totally right. the new album iowa isnt as good as they made out. email
me with your views if you want! bye! oh yeah, someone send me the guitar solo
for the song slipknot on mate feed kill repeat, cause i cant find it nowhere,
and cannot make it out! happy playing!

Comments