Slipknot - My Plague Chords & Tabs

 

My Plague Chords & Tabs

Slipknot Chords & Tabs

Version: 8 Type: Tab 0 ratings
1 star 2 stars 3 stars 4 stars 5 stars
comments

My Plague Tab

   
Artist: SlipKnot
Song: My Plague
Album: Iowa
Tabbed by: elliot smith (elliot_smith01@hotmail.com)

If you as me this is one of their best songs off iowa next to Heritic Anthem which is a 
pure BEAST!..Stay (sic) Its long but very accurate 100% almost follow along with song

Tuning: A-E-A-D-F#-B

Intro: Moderate Fast Rock = 172

B :--------------------------|--------------------------
F#:--------------------------|--------------------------
D :--------------------------|--------------------------
A :--------------------------|--------------------------
E :-0-0-0-0-0----------------|-0-0-0-0-0----------------
A :-0-0-0-0-0--1--(1)/2--2\1-|-0-0-0-0-0--1--(1)/2--2\1-
pm  .........                  .........
Verse

i'm in con-nip-tions for the fi-nal act you came here for.
B :--------------------------|--------------------------
F#:--------------------------|--------------------------
D :--------------------------|--------------------------
A :--------------------------|--------------------------
E :-0-0-0-0-0----------------|-0-0-0-0-0----------------
A :-0-0-0-0-0--1--(1)/2--2\1-|-0-0-0-0-0--1--(1)/2--2\1-
pm  .........                  .........
The one de-riv-a-tive you man-age is the one I ab-hor.
B :--------------------------|--------------------------
F#:--------------------------|--------------------------
D :--------------------------|--------------------------
A :--------------------------|--------------------------
E :-0-0-0-0-0----------------|-0-0-0-0-0----------------
A :-0-0-0-0-0--1--(1)/2--2\1-|-0-0-0-0-0--1--(1)/2--2\1-
pm  .........                  .........
I need a minitue to e-lab-ourate-for ev-'ry - one the
B :--------------------------|--------------------------
F#:--------------------------|--------------------------
D :--------------------------|--------------------------
A :--------------------------|--------------------------
E :-0-0-0-0-0----------------|-0-0-0-0-0----------------
A :-0-0-0-0-0--1--(1)/2--2\1-|-0-0-0-0-0--1--(1)/2--2\1-
pm  .........                  .........
   Ev-'ry day bull  -  shit   thing that you___have done
B :--------------------------|--------------------------
F#:--------------------------|--------------------------
D :--------------------------|--------------------------
A :--------------------------|--------------------------
E :-0-0-0-0-0----------------|-0--0--0------------------
A :-0-0-0-0-0--1--(1)/2--2\1-|-0--0--0------------------
pm  .........                  .......
   your im-pos - si - ble   e-go fuck is like a
B :------------------------|------------------------
F#:------------------------|------------------------
D :------------------------|------------------------
A :------------------------|------------------------
E :-0--0--0--1--(1)/2--2\1-|-0--0--0--1--(1)/2--2\1-
A :-0--0--0--1--(1)/2--2\1-|-0--0--0--1--(1)/2--2\1-
pm  .  .  .                  .  .  .

    meg-a-lo-ma-ni-a-cal    tab   on   my   tounge
B :------------------------|------------------------
F#:------------------------|------------------------
D :------------------------|------------------------
A :------------------------|------------------------
E :-0--0--0--1--(1)/2--2\1-|-0--0--0--1--(1)/2--2\1-
A :-0--0--0--1--(1)/2--2\1-|-0--0--0--1--(1)/2--2\1-
pm  .  .  .                  .  .  .

   you fuck-in touch   me    i will rip you apart
B :------------------------|------------------------
F#:------------------------|------------------------
D :------------------------|------------------------
A :------------------------|------------------------
E :-0--0--0--1--(1)/2--2\1-|-0--0--0--1--(1)/2--2\1-
A :-0--0--0--1--(1)/2--2\1-|-0--0--0--1--(1)/2--2\1-
pm  .  .  .                  .  .  .

   i'll reach in _________  and take a bite of that shit you call a heart
B :------------------------|------------------------
F#:------------------------|------------------------
D :------------------------|------------------------
A :------------------------|------------------------ 
E :-0--0--0--1--(1)/2--2\1-|-0--0--0--1--(1)/2--2\1- 
A :-0--0--0--1--(1)/2--2\1-|-0--0--0--1--(1)/2--2\1-
pm  .  .  .                  .  .  .

fit another 1 in here after to fit with lyrics

yeah!____ yeah!_____yeah!____(no guitar heard)

I dont mine be-ing


B :---------------
F#:---------------
D :---------------
A :---------------
E :---------------
A :--------22\/22-

    o-gled,   rid-i-culed   made to feel min-is-cule
B :------------------------|------------------------
F#:------------------------|------------------------
D :------------------------|------------------------
A :------------------------|------------------------
E :-0--0--0--1--(1)/2--2\1-|-0--0--0--1--(1)/2--2\1-
A :-0--0--0--1--(1)/2--2\1-|-0--0--0--1--(1)/2--2\1-
pm  .  .  .                  .  .  .

when you con-sid-er the source_its kind-a pit-ful
B :------------------------|------------------------
F#:------------------------|------------------------
D :------------------------|------------------------
A :------------------------|------------------------
E :-0--0--0--1--(1)/2--2\1-|-0--0--0--1--(1)/2--2\1-
A :-0--0--0--1--(1)/2--2\1-|-0--0--0--1--(1)/2--2\1-
pm  .  .  .                  .  .  .

The only thing you real-ly know about me is.......

B :------------------------|------------------------
F#:------------------------|------------------------
D :------------------------|------------------------
A :------------------------|------------------------
E :-0--0--0--1--(1)/2--2\1-|-0--0--0--1--(1)/2--2\1-
A :-0--0--0--1--(1)/2--2\1-|-0--0--0--1--(1)/2--2\1-
pm  .  .  .                  .  .  .

Thats all you'll ever know

B :----------
F#:----------
D :----------
A :----------
E :-0--0--0--
A :-0--0--0--
pm  .  .  .  

Chorus

   I      know_   why__          you_     
B :------------------|-------------------
F#:------------------|----------------20-
D :-------7--7----10-|-10----12--12---X--
A :-------X--X----X--|-X-----X---X----17-
E :-------5--5----8--|-8-----10--10------
A :--0--0-------0----|----0----------0---


blame________________      me________
B :-------------------|-----------------
F#:-20-20-20-20-20-20-|-20-20-20-20-----
D :-X--X--X--X--X--X--|-X--X--X--X------
A :-17-17-17-17-17-17-|-17-17-17-17-----
E :-------------------|-----------------
A :-------------------|------------21/0-

   I    know_   why__          you_     blame__
B :------------------|----------------------
F#:------------------|----------------------
D :-------7--7----10-|---10----12--12-------
A :-------X--X----X--|---X-----X---X--------
E: -------5--5----8--|---8-----10--10-----2-
A: --0--0-------0----|------0----------0--2-

      your - self                   I____
B :----------------|------------------
F#:----------------|------------------
D :----------------|------------------
A :----------------|------------------
E :2-2-2-2-2-2-2-2/|6-6-6-6-6-6-6-6---
A :2-2-2-2-2-2-2-2/|6-6-6-6-6-6-6-6-0-

   know_   why__          you_     Plague___
B :-------------------|--------------------
F#:-------------------|-----------------20-
D :-------7--7----10--|---10----12--12--X--
A :-------X--X----X---|---X-----X---X---17-
E :-------5--5----8---|---8-----10--10-----
A :--0--0-------0-----|------0---------0---

     _____________      me________
B :-------------------|-----------------
F#:-20-20-20-20-20-20-|--20-20-20-20----
D :-X--X--X--X--X--X--|--X--X--X--X-----
A :-17-17-17-17-17-17-|--17-17-17-17----
E :-------------------|-----------------
A :-------------------|-------------21/0-


I      know_   why__          you_     plague_                 
B :------------------|------------------------
F#:------------------|------------------------
D :------7--7----10--|---10-----12--12--------
A :------X--X----X---|---X------X---X---------
E: ------5--5----8---|---8------10--10------2-
A: --0-0-------0-----|------0-----------0---2-

   _      your - self 
B :--------------|-------------------
F#:--------------|-------------------
D :--------------|-------------------
A :--------------|-------------------
E :2-2-2-2-2-2-2/|6-6-6-6-6-6-6-6----
A :2-2-2-2-2-2-2/|6-6-6-6-6-6-6-6--0-

Verse
                                          
B :--------------------------|--------------------------
F#:--------------------------|--------------------------
D :--------------------------|--------------------------
A :--------------------------|--------------------------
E :-0-0-0-0-0----------------|-0-0-0-0-0----------------
A :-0-0-0-0-0--1--(1)/2--2\1-|-0-0-0-0-0--1--(1)/2--2\1-
pm  .........                  .........
   I'm turn-ing it a - round  like a knife in the shell     
B :------------------------|------------------------
F#:------------------------|------------------------
D :------------------------|------------------------
A :------------------------|------------------------
E :-0--0--0--1--(1)/2--2\1-|-0--0--0--1--(1)/2--2\1-
A :-0--0--0--1--(1)/2--2\1-|-0--0--0--1--(1)/2--2\1-
pm  .  .  .                  .  .  .

  I wan-na-un-der-stand     why but i'm hur-ting me-self
B :------------------------|------------------------
F#:------------------------|------------------------
D :------------------------|------------------------
A :------------------------|------------------------
E :-0--0--0--1--(1)/2--2\1-|-0--0--0--1--(1)/2--2\1-
A :-0--0--0--1--(1)/2--2\1-|-0--0--0--1--(1)/2--2\1-
pm  .  .  .                  .  .  .

I havent seen a-lot of re-sons to stop it i cant just drop it
B :------------------------|------------------------
F#:------------------------|------------------------
D :------------------------|------------------------
A :------------------------|------------------------
E :-0--0--0--1--(1)/2--2\1-|-0--0--0--1--(1)/2--2\1-
A :-0--0--0--1--(1)/2--2\1-|-0--0--0--1--(1)/2--2\1-
pm  .  .  .                  .  .  .

I'm just a bastard but at   least i admit it  AT LEAST
B :------------------------|------------------------
F#:------------------------|------------------------
D :------------------------|------------------------
A :------------------------|------------------------
E :-0--0--0--1--(1)/2--2\1-|-0--0--0--1--(1)/2--2\1-
A :-0--0--0--1--(1)/2--2\1-|-0--0--0--1--(1)/2--2\1-
pm  .  .  .                  .  .  .

      i ad-mit it!_______
B :----------------------
F#:----------------------
D :----------------------
A :----------------------
E :-0---2--2--2--2--2--2-
A :-0---2--2--2--2--2--2-

Chorus
 
  I      know_   why__          you_     
B :------------------|-------------------
F#:------------------|----------------20-
D :-------7--7----10-|-10----12--12---X--
A :-------X--X----X--|-X-----X---X----17-
E :-------5--5----8--|-8-----10--10------
A :--0--0-------0----|----0----------0---
[ Tab from: http://www.guitartabs.cc/tabs/s/slipknot/my_plague_tab_ver_8.html ]
blame________________      me________
B :-------------------|-----------------
F#:-20-20-20-20-20-20-|-20-20-20-20-----
D :-X--X--X--X--X--X--|-X--X--X--X------
A :-17-17-17-17-17-17-|-17-17-17-17-----
E :-------------------|-----------------
A :-------------------|------------21/0-

   I    know_   why__          you_     blame__
B :------------------|----------------------
F#:------------------|----------------------
D :-------7--7----10-|---10----12--12-------
A :-------X--X----X--|---X-----X---X--------
E: -------5--5----8--|---8-----10--10-----2-
A: --0--0-------0----|------0----------0--2-

      your - self                I____
B :----------------|------------------
F#:----------------|------------------
D :----------------|------------------
A :----------------|------------------
E :2-2-2-2-2-2-2-2/|6-6-6-6-6-6-6-6---
A :2-2-2-2-2-2-2-2/|6-6-6-6-6-6-6-6-0-


   know_   why__          you_     Plague___
B :-------------------|--------------------
F#:-------------------|-----------------20-
D :-------7--7----10--|---10----12--12--X--
A :-------X--X----X---|---X-----X---X---17-
E :-------5--5----8---|---8-----10--10-----
A :--0--0-------0-----|------0---------0---

     _____________      me________
B :-------------------|-----------------
F#:-20-20-20-20-20-20-|--20-20-20-20----
D :-X--X--X--X--X--X--|--X--X--X--X-----
A :-17-17-17-17-17-17-|--17-17-17-17----
E :-------------------|-----------------
A :-------------------|-------------21/0-


I      know_   why__          you_     plague_                 
B :------------------|------------------------
F#:------------------|------------------------
D :------7--7----10--|---10-----12--12--------
A :------X--X----X---|---X------X---X---------
E: ------5--5----8---|---8------10--10------2-
A: --0-0-------0-----|------0-----------0---2-

   _      your - self 
B :--------------|-------------------
F#:--------------|-------------------
D :--------------|-------------------
A :--------------|-------------------
E :2-2-2-2-2-2-2/|6-6-6-6-6-6-6-6----
A :2-2-2-2-2-2-2/|6-6-6-6-6-6-6-6--0-

Interlude

Gtr 2:

B :---------------|--------------------
F#:---------------|--------------------
D :---------------|-----10--9---11----- X2
A :---------------|-----------9----10--
E :-------3--4----|--------------------
A :-0-3-2-------3-|-4------------------
pm  . . . .  .  .   .   .  .  .  . .     
Gtr 1:

B :---------------|--------------------
F#:---------------|--------------------
D :---------------|-------------------- X2
A :---------------|-------3--2----4---- 
E :-------3--4----|------------2-----3-
A :-0-3-2-------3-|-4------------------
pm  . . . .  .  .   .   .  .  .  . .    

YEAH!!

Half time feel

B :-----------------|---------------------
F#:-----------------|---------------------
D :-----------------|---------------------
A :-----------------|------2-3p2p0----4--- x2
E :---------3-h-4---|---------------2---3-
A :-0-3-2-0-------3-|-4-------------------
pm  . . . .         h                       

End Half Time feel

   Oo_______________Kill you, fuck you, I will ne-ver be you!   
   YEAH!___ ___
   I cant fuck-in' take it an-y-more A snap of the 
   syn-a-pse and now its fuck-in' war___
   Kill you, Fuck you, I will nev-er be you!               
   YEAH!____________________ ___
B :----------------------------
F#:-----------------------------
D :-----------------------------
A :-----------2-3p2p0----4------
E :--------------------2---3----
A :-0-3-2-0---------------------

Repeat above ^ 8 times to fit with lyrics above it

Chorus
   I      know_   why__          you_     
B :------------------|-------------------
F#:------------------|----------------20-
D :-------7--7----10-|-10----12--12---X--
A :-------X--X----X--|-X-----X---X----17-
E :-------5--5----8--|-8-----10--10------
A :--0--0-------0----|----0----------0---

blame________________      me________
B :-------------------|-----------------
F#:-20-20-20-20-20-20-|-20-20-20-20-----
D :-X--X--X--X--X--X--|-X--X--X--X------
A :-17-17-17-17-17-17-|-17-17-17-17-----
E :-------------------|-----------------
A :-------------------|------------21/0-

   I    know_   why__          you_     blame__
B :------------------|----------------------
F#:------------------|----------------------
D :-------7--7----10-|---10----12--12-------
A :-------X--X----X--|---X-----X---X--------
E: -------5--5----8--|---8-----10--10-----2-
A: --0--0-------0----|------0----------0--2-

      your - self                 I____
B :----------------|------------------
F#:----------------|------------------
D :----------------|------------------
A :----------------|------------------
E :2-2-2-2-2-2-2-2/|6-6-6-6-6-6-6-6---
A :2-2-2-2-2-2-2-2/|6-6-6-6-6-6-6-6-0-


   know_   why__          you_     Plague___
B :-------------------|--------------------
F#:-------------------|-----------------20-
D :-------7--7----10--|---10----12--12--X--
A :-------X--X----X---|---X-----X---X---17-
E :-------5--5----8---|---8-----10--10-----
A :--0--0-------0-----|------0---------0---

     _____________      me________
B :-------------------|-----------------
F#:-20-20-20-20-20-20-|--20-20-20-20----
D :-X--X--X--X--X--X--|--X--X--X--X-----
A :-17-17-17-17-17-17-|--17-17-17-17----
E :-------------------|-----------------
A :-------------------|-------------21/0-


I      know_   why__          you_     plague_                 
B :------------------|------------------------
F#:------------------|------------------------
D :------7--7----10--|---10-----12--12--------
A :------X--X----X---|---X------X---X---------
E: ------5--5----8---|---8------10--10------2-
A: --0-0-------0-----|------0-----------0---2-

   _      your - self 
B :--------------|-------------------
F#:--------------|-------------------
D :--------------|-------------------
A :--------------|-------------------
E :2-2-2-2-2-2-2/|6-6-6-6-6-6-6-6----
A :2-2-2-2-2-2-2/|6-6-6-6-6-6-6-6--0-

END CHORUS
             I___________          know___   you___        
    I       know             why_____          you___     
B :---------------------|-------------------------------
F#:---------------------|-------------------------------
D :-----14---14-----10--|----10-----10-----10---10------
A :-----X----X------X---|----X------X------X----X-------
E :-----12---12-----8---|----8------8------8----8-----2-
A :---0----------0------|--------0-----------------0--2-

   blame________ your - self.
   plague________ your - self.
B :-----------------------------------
F#:-----------------------------------
D :-----------------------------------
A :-----------------------------------
E :-2-2-2-2-2-2-2/6-6-6-6-6-6-6-6-6---
A :-2-2-2-2-2-2-2/6-6-6-6-6-6-6-6-6-0-
    
               I___________          know___   you___        
    I       know             why_____          you___     
B :---------------------|-------------------------------
F#:---------------------|-------------------------------
D :-----14---14-----10--|----10-----10-----10---10------
A :-----X----X------X---|----X------X------X----X-------
E :-----12---12-----8---|----8------8------8----8-----2-
A :---0----------0------|--------0-----------------0--2-

   blame________ your - self.
   plague________ your - self.
B :-----------------------------------
F#:-----------------------------------
D :-----------------------------------
A :-----------------------------------
E :-2-2-2-2-2-2-2/6-6-6-6-6-6-6-6-6---
A :-2-2-2-2-2-2-2/6-6-6-6-6-6-6-6-6-0-

                 ---self   
B :------------------------|------------------------
F#:------------------------|------------------------
D :------------------------|------------------------
A :------------------------|------------------------
E :-0--0--0--1--(1)/2--2\1-|-0--0--0--1--(1)/2--2\1-
A :-0--0--0--1--(1)/2--2\1-|-0--0--0--1--(1)/2--2\1-
pm  .  .  .                  .  .  .
			    Well i know why you blame your 
F#:------------------------|------------------------
D :------------------------|------------------------
A :------------------------|------------------------
E :-0--0--0--1--(1)/2--2\1-|-0--0--0--1--(1)/2--2\1-
A :-0--0--0--1--(1)/2--2\1-|-0--0--0--1--(1)/2--2\1-
pm  .  .  .                  .  .  .

                 ----Self
B :------------------------|------------------------
F#:------------------------|------------------------
D :------------------------|------------------------
A :------------------------|------------------------
E :-0--0--0--1--(1)/2--2\1-|-0--0--0--1--(1)/2--2\1-
A :-0--0--0--1--(1)/2--2\1-|-0--0--0--1--(1)/2--2\1-
pm  .  .  .                  .  .  .

    			     I know why you plague your
B :------------------------|------------------------
F#:------------------------|------------------------
D :------------------------|------------------------
A :------------------------|------------------------
E :-0--0--0--1--(1)/2--2\1-|-0--0--0--1--(1)/2--2\1-
A :-0--0--0--1--(1)/2--2\1-|-0--0--0--1--(1)/2--2\1-
pm  .  .  .                  .  .  . 
				  I   know why you blame your-
                                  I   know why you plague your- 
B :---------|---------------|---------------|---------------
F#:---------|---------------|---------------|---------------
D :---------|---------------|---------------|---------------
A :---------|---------------|---------------|---------------
E :-0-0-0-0-|-0-1-(1)/2-2\1-|-0-0-0-0-0-0-0-|-0-1-(1)/2-2\1-
A :-0-0-0-0-|-0-1-(1)/2-2\1-|-0-0-0-0-0-0-0-|-0-1-(1)/2-2\1-
pm  . . . .       ^pause      . . . . . . .      ^pause  

  self!_____________________
B :---------|---------------|---------------|---------------
F#:---------|---------------|---------------|---------------
D :---------|---------------|---------------|---------------
A :---------|---------------|---------------|---------------
E :-0-0-0-0-|-0-1-(1)/2-2\1-|-0-0-0-0-0-0-0-|-0-1-(1)/2-2\1-
A :-0-0-0-0-|-0-1-(1)/2-2\1-|-0-0-0-0-0-0-0-|-0-1-(1)/2-2\1-
pm  . . . .       ^pause       . . . . . . .      ^pause
              

B :--------------------------|--------------------------
F#:--------------------------|--------------------------
D :--------------------------|--------------------------
A :--------------------------|--------------------------
E :-0-0-0-0-0----------------|-0-0-0-0-0----------------
A :-0-0-0-0-0--1--(1)/2--2\1-|-0-0-0-0-0--1--(1)/2--2\1-
pm  .........                  .........

B :--------------------------|--------------------------
F#:--------------------------|--------------------------
D :--------------------------|--------------------------
A :--------------------------|--------------------------
E :-0-0-0-0-0----------------|-0-0-0-0-0----------------
A :-0-0-0-0-0--1--(1)/2--2\1-|-0-0-0-0-0--1--(1)/2--2\1- End
pm  .........                  .........						


There you go Maggots I found some tabs and was impressed now rate my beastly tab!! :) 
lol Cu all later .. Stay (sic)
Comments