Slipknot - My Plague Chords & Tabs

 

My Plague Chords & Tabs

Slipknot Chords & Tabs

Version: 4 Type: Tab 0 ratings
1 star 2 stars 3 stars 4 stars 5 stars
comments

My Plague Tab

   
SLIPKNOT MY PLAGUE

	TUNING: Drop D and down 2 and 1/2 steps (A E A D F# B)
Riff 1:
 B |---------------|
 F#|---------------|
 D |---------------| 
 A |-0-0-0-0-------| 
 E |-0-0-0-0-1bh2r-|
 A |-0-0-0-0-1bh2r-|
  PM - - - -
[ Tab from: http://www.guitartabs.cc/tabs/s/slipknot/my_plague_tab_ver_4.html ]
 Riff 2:
 B |-----------------------|
 F#|-----------------------|
 D |-7---5---5---9---12----|
 A |-7---5---5---9---12----|
 E |-5---3---3---7---10----|
 A |-----------------------|

 Riff 3:
 B |---------------------------|
 F#|---------------------------|
 D |---------------------------| 
 A |-----------------------2-3-| 
 E |---------------------------|
 A |-0-1-0-3-2--1-0--0-3-0-----|
  PM - - - - -  - -  - - - - -

      Riff 4
 B |-----------------------------|
 F#|-----------------------------|
 D |-----------------------------| 
 A |-0-1-0-3-2--0--3-2-0---------| 
 E |-0-1-0-3-2--0--------3-2-1-0-|
 A |-0-1-0-3-2--0----------------|

Comments