Slipknot - My Plague Chords & Tabs

 

My Plague Chords & Tabs

Slipknot Chords & Tabs

Version: 2 Type: Tab 0 ratings
1 star 2 stars 3 stars 4 stars 5 stars
comments

My Plague Tab

   
Slipknot - My Plague

Tabbed by Kevin Grant
Any comments please email me at kev_lucid@hotmail.com

KEY

h		Hammer on
p		Pull off
b		Bend
pm		Palm mute
\		Slide 
>		Carry on bend

Intro Riff

B ---------------------------------------------------------------------
F#---------------------------------------------------------------------
D ---------------------------------------------------------------------
A ---------------------------------------------------------------------
E --0-0-0-0-0----------------------------------------------------------
A --0-0-0-0-0-1h2-2p1--------------------------------------------------

Verse 1

B ----------------|-----------|----------------|--------0---------------
F#----------------|-----------|----------------|------------------------
D ----------------|-----------|----------------|------------------------
A ----------------|-----------|----------------|------------------------
E --00000---------|--00000--1-|---000----------|--0-0-0-----------------
A --00000-1h2 2p1-|--00000--1-|-p-000-1h2-2p1--|--0-0-0-----------------
pm.......            .....        ...             .....


Verse 3

B ---------------------------------------------------------------------
F#---------------------------------------------------------------------
D ---------------------------------------------------------------------
A ---------------------------------------------------------------------
E --0---0---0---1--h--2--2-p-1-----------------------------------------
A --0---0---0---1--h--2--2-p-1-----------------------------------------
pm...........


Chorus
[ Tab from: http://www.guitartabs.cc/tabs/s/slipknot/my_plague_tab_ver_2.html ]
B ---------------------------------------------------------------------
F#---------------------------------------8-8-8-8-8-8-8-8-8-8-8-8-------
D --------7--77-10-10-10-12--12-12--11b12>>>>>>>>>>>>>>>>>>>>>>>>------
A ---------------------------------------------------------------------
E --0-0-0-5--55-8--8--8--10--10-10-------------------------------------
A --0-0-0--------------------------------------------------------------
pm                                       ........................

B ---------------------------------------------------------------------
F#---------------------------------------------------------------------
D ------------7-77--10-10-10--12-12-12---------------------------------
A ---------------------------------------------------------------------
E ------0-0-0-5-55--8--8--8---10-10-10-22222222-6666666-0--------------
A --19\-0-0-0--------------------------22222222-6666666-0--------------


Middle Section

B --------------------------|-------------------------------------------
F#--------------------------|-------------------------------------------
D --------------------------|-------------------------------------------
A ----------------3-2---4---|-------------------2h3p2p0---4-------------
E --------4-3---------2---3-|-0-3-2-0-3h4---------------2---3-----------
A --0-3-2-----4-3-----------|-0-3-2-0-----3h4-0-------------------------
pm.........................   .......

Outro Riffs

B -------------------|----------------------|---------------|-------------
F#-------------------|----------------------|---------------|-------------
D -------------------|----------------------|---------------|-------------
A -------------------|----------------------|---------------|-------------
E -0-0-0-1-h-2-2-p-1-|-00000-00-1-h-2-2-p-1-|-00000---------|-00000-------
A -0-0-0-1-h-2-2-p-1-|-00000-00-1-h-2-2-p-1-|-00000-1h2-2p1-|-00000-1h2-2-
pm......              .........              ......

Comments