Slipknot - Metabolic Chords & Tabs

 

Metabolic Chords & Tabs

Slipknot Chords & Tabs

Version: 2 Type: Tab 0 ratings
1 star 2 stars 3 stars 4 stars 5 stars
comments

Metabolic Tab

   
Metabolic-Slipknot
Iowa

Drop B
B F# B E G# C#

Fig 1.

e-------------------------------------------------
b-------------------------------------------------
g-------------------------------------------------
d-------4---------5---4----------6---------5\4----
a-6-5-4-4-5-4-6-5-5-6-4-6--4-6-6-6-6-5-4-6-5\4----
d-6-5-4---5-4-6-5---6---6--4-6-6---6-5-4-6--------

Fig 2.

e-------------------------------------------------
b-------------------------------------------------
g-------------------------------------------------
d-------------------------------------------------
a-4-3-2-1-5---4----4-3-2-1-5---4------------------
d-4-3-2-1---6---5--4-3-2-1---6---5----------------

Verse 1  ...Gone, i couldnít murder...

Riff A
e-------------------------------------------------
b-------------------------------------------------
g-------------------------------------------------
d-------------------------------------------------
a---------1---0----------1---0--------------------
d-3-2-1-0---2---1--3-2-1---2---1------------------

Pre Chorus

e-------------------------------------------------
b-------------------------------------------------
g-------------------------------------------------
d-1--1--1--1--1--1--1--1--1--1--1-----------1--1--
a-1--1--1--1--1--1--1--1--1--1--1-----------1--1--
d-1--1--1--1--1--1--1--1--1--1--1--1/13~~~~~1--1--

Chorus:


e--------------------------------------------------
b--------------------------------------------------
g--------1-1---2-2---3-3---4-4-4-8-8-7-7---1-1---2-
d--------1-1---2-2---3-3---4-4-4-8-8-7-7-0-1-1---2-
a----------------------------------------0---------
d-1b---------0-----0-----0---------------0-----0---

e--------------------------------------------------
b--------------------------------------------------
g-2---3-3---4-4-8-8-7------1-1---2-2---3-3---4-4---
d-2---3-3---4-4-8-8-7------1-1---2-2---3-3---4-4---
a--------------------------------------------------
d---0-----0-----------0-0------0-----0-----0-------

...iím always ready to die...

gtr 1
e--------------------------------------------------
b-----------------5-5-6-6-6-7-7-7------------------
g-----------------4-4-5-5-5-6-6-6------------------
d-1-1-1-1-3-1-0-2-2-2-3-3-3-4-4-4------------------
a-1-1-1-1-3-1-0-2-2-2-3-3-3-4-4-4------------------
d-1-1-1-1-3-1-0-2-2-2-3-3-3-4-4-4------------------
[ Tab from: http://www.guitartabs.cc/tabs/s/slipknot/metabolic_tab_ver_2.html ]
gtr 2
e--------------------------------------------------
b-12-----12-----12-----12--------------------------
g-14b----14b----14b----14b-------------------------
d--------------------------------------------------
a--------------------------------------------------
d--------------------------------------------------

...my only like....

e--------------------------------------------------
b--------------------------------------------------
g--------------------------------------------------
d--------------------------------------------------
a-4-3-2-1-5---4---4-3-2-1-5---4---4-3-2-1----------
d-4-3-2-1---6---5-4-3-2-1---6---5-4-3-2-1----------

Interlude:

e--------------------------------------------------
b--------------------------------------------------
g--------------------------------------------------
d--------------------------------------------------
a-6666666------------------------------------------
d----------4444444-2222222-----555-6666-11111-6666-

e--------------------------------------------------
b--------------------------------------------------
g--------------------------------------------------
d--------------------------------------------------
a-------------------------------6------------------
d-0-0-4-4-2-2-2-5-5-5-1-1-1-6-6---x-1-4-4-2-2-2-5--

trem pick
e-6666-3333----------------------------------------
b----------------44-4444---------------------------
g-----------4444---------3333----------------------
d--------------------------------------------------
a--------------------------------------------------
d--------------------------------------------------

3rd verse

e--------------------------------------------------
b--------------------------------------------------
g--------------------------------------------------
d-6-------------------6----------------------------
a-6--4--2--5---1---6--6--4--2--5---1---6-----------
d----4--2--5---1---6-----4--2--5---1---6-----------

Breakdown

e--------------------------------------------------
b--------------------------------------------------
g--------------------------------------------------
d--------------------------------------------------
a--------------------------------------------------
d-1-1-0-0-6-6-0-7-7-0-8-8-0-9-9-13-----------------

e--------------------------------------------------
b--------------------------------------------------
g--------------------------------------------------
d--------------------------------------------------
a--------------------------------------------------
d-0-0-0-0-6-6-0-7-7-0-8-8-0-9-9-13-----------------

Chorus:   ...my demise....

e-----------------------------------------------------------------
b-----------------------------------------------------------------
g-----------------------------------------------------------------
d-----------------------------------------------------------------
a-----6--0-7-7-0-8-8-0-9-9-13-13\12-0-0-6-6-0-7-7-0-8-8-0-9-9-13--
d-----6--0-7-7-0-8-8-0-9-9-13-13\12-0-0-6-6-0-7-7-0-8-8-0-9-9-13--

thatís all

trevor jones
timmy91199@yahoo.ca
Comments