Slipknot - Heretic Anthem Chords & Tabs

 

Heretic Anthem Chords & Tabs

Slipknot Chords & Tabs

Version: 2 Type: Tab 1 rating
1 star 2 stars 3 stars 4 stars 5 stars
comments

Heretic Anthem Tab

   
-------------------------------------------------------------------------------
			     Heretic anthem - Slipknot
-------------------------------------------------------------------------------

By:gothbitch

hey all you maggots we need more slipknot tabs on here!
 
pm palm muted
/  slide
() let ring one beat, dont pick

drop tuned to (A,E,A,D,F#,B)
...unless you have heavier-gauge strings this is gonna sound bad if you pick too hard
 let the amp do the work and palm mute alot...
note***:almost everytime an open chord is played theyre all palm muted.
(i cant mark all of them)

  intro,    pm...,    pm...,    (repeat till words)
B|-------|--------------------------------------------------------------------|
F|-------|--------------------------------------------------------------------|
D|-------|--------------------------------------------------------------------|
A|-------|--------------------------------------------------------------------|
E|-------|--------------------------------------------------------------------|
A|-22/0--|--0-0-0-1---0-0-0-1-------------------------------------------------|

verse repeat
B|----------------------------------------|
F|----------------------------------------|
D|----------------------------------------|
A|------------6/5-------------------------|
E|-----3/2----4/3------3-----8----1-------|
A|-0-0-3/2--0-----4-4--3-0-0-8--0-1-------|
pop start threat and im not dead yet got a
super dred bet with an agel drug head like a
dead beat winner i wanna be a sinner an
idolised bang for the industry killer a
hideous man that you don't understand throw a
suicide party and im garanteed to fucking snap
 its evilsonic pornoholic
breakdown obscenities its all i wanna be if your,
  
chorus  (repeat)
B|-------------------------------------|--------------------------------------|
F|-------------------------------------|--------------------------------------|
D|-------------------------------------|--------------------------------------|
A|-------------------------------------|--------------------------------------|
E|-2--5-5-(5)-4--5-----6--5-6-(6)-7--8-|-2--5-5-(5)-4--5---6--5-6-(6)-7--8----|
A|-2--5-5-(5)-4--5-----6--5-6-(6)-7--8-|-2--5-5-(5)-4--5---6--5-6-(6)-7--8----|
five five five then im six six six     ,whats it like to be a heretic   if your... 
 
(intro to verse)                  * verse  (repeat verse only)
B|--------------------------------|-------------------------------------------|
F|--------------------------------|-------------------------------------------|
D|--------------------------------|-------------------------------------------|
A|------------6/5-----------------|-------------------------------------------|
E|-----3/2----4/3-4-/-3-----8---1-|------------------------1/3--3/2-3/5-------|
A|-0-0-3/2--0-----4-/-3-0-0-8-0-1-|--0-0-0-1--0-0-0-1--0-0-1/3--3/2-3/5-------|
                                  * everybody's so infatuated...
    everybody's so completelly shure of what we are
    everybody's defamates  from miles away
    but face to face they havent got a thing to say
    i bleed for this and i bleed for you still you
    look in my face like im somebody's new toy
    nobody wants anything ive got which is
    fine because your made of everything im not  if your,
 chorus(five five five im six six six)
 (drum solo)

 interlude
B|--------|-------------------------------------------------------------------|
F|--------|-------------------------------------------------------------------|
D|--------|-------------------------------------------------------------------|
A|--------|-------------------------------------------------------------------|
E|-3-0-1-0|--3-0-0-0--0-0-1-2--3-0-1--------1-2--3-0-0-0--0-0-6/5-------------|
A|-3-0-1-0|--3-0-0-0--0-0-1-2--3-0-1-0--8-0-1-2--3-0-0-0--0-0-6/5-------------|

B|---------------------------------------------------------------------------|
F|---------------------------------------------------------------------------|
D|---------------------------------------------------------------------------|
A|---------------------------------------------------------------------------|
E|-0-5/3-0--3/0-1-0--3-0-0-0--0-0-1-2--3-0-1-0--8-0-1-2--3-0-0--0-0-6/5------|
A|-0-5/3-0--3/0-1-0--3-0-0-0--0-0-1-2--3-0-1-0--8-0-1-2--3-0-0--0-0-6/5------|
[ Tab from: http://www.guitartabs.cc/tabs/s/slipknot/heretic_anthem_tab_ver_2.html ]
         *
B|-------|--------------------------------------------------------------------|
F|-------|.-------------------------------------------------------------------|
D|-------|--------------------------------------------------------------------|
A|-------|.-------------------------------------------------------------------|
E|-0-5-3-|-0-1-0-3--0-0-0-0--0-1-2-3--0-1-0-8--0-1-2-3--0-0-0-0---------------|
A|-0-5-3-|-0-1-0-3--0-0-0-0--0-1-2-3--0-1-0-8--0-1-2-3--0-0-0-0---------------|
 Heretic---

B|---------------------------------------------------------------------------|
F|---------------------------------------------------------------------------|
D|---------------------------------------------------------------------------|
A|---------------------------------------------------------------------------|
E|-0-3/5-0--5-3-0-3---0-1-0-3--0-0-0-0---0-1-2-3--0-1-0-8--------------------|
A|-0-6/5-0--5-3-0-3---0-1-0-3--0-0-0-0---0-1-2-3--0-1-0-8--------------------|

                     1--------------   2------------        
B|-----------------------------------|----------------------------------------|
F|----------------------------------.|----------------------------------------|
D|-----------------------------------|----------------------------------------|
A|----------------------------------.|---------x------------------------------|
E|-0-1-2-3--0-0-0-0--0-6/5-0--5--3---|--0-6/5----1----------------------------|
A|-0-1-2-3--0-0-0-0--0-6/5-0--5--3---|--0-6/5----1----------------------------|

verse
B|---------------------------------------------------------------------------|
F|---------------------------------------------------------------------------|
D|---------------------------------------------------------------------------|
A|---------------------------------------------------------------------------|
E|-0-1-0-3-----1-2-3---1--8---1-2-3--------1--3-0----------------------------|
A|-0-1-0-3-----1-2-3---1--8---1-2-3--------1--3-0----------------------------|
thirty seconds sixteen eight four lemme tell you why i havent the slightest im teaching your brightest

B|---------------------------------------------------------------------------|
F|---------------------------------------------------------------------------|
D|---------------------------------------------------------------------------|
A|---------------------------------------------------------------------------|
E|-0-1-0-3-----1-2-3---1--8---1-2-3--------0-0-0-----------------------------|
A|-0-1-0-3-----1-2-3---1--8---1-2-3--------0-0-0-----------------------------|
they re listening clamoring all the money in the world can't buy me go ahead

B|---------------------------------------------------------------------------|
F|---------------------------------------------------------------------------|
D|---------------------------------------------------------------------------|
A|---------------------------------------------------------------------------|
E|-0-1-0-3-------------1-2-3----1---8----1-2-3-----------------1--3-0-0-0----|
A|-0-1-0-3--0-0-0-0--0-1-2-3--0-1-0-8--0-1-2-3--0-0-0-0--0-0-0-1--3-0-0-0----|
lie to me tell me again how you're tortured i wanna know how you followed your orders 

B|---------------------------------------------------------------------------|
F|---------------------------------------------------------------------------|
D|---------------------------------------------------------------------------|
A|---------------------------------------------------------------------------|
E|-0-1-2-3------------1-2-3----1---8----1-2-3-----------------1--3-0-0-0-----|
A|-0-1-2-3-0-0-0-0--0-1-2-3--0-1-0-8--0-1-2-3--0-0-0-0--0-0-0-1--3-0-0-0-----|
so well you're full of shit you had a dream but this aint it if your...

chorus..tremolo picking                 rep twice
B|----------------------------------------------------|
F|----------------------------------------------------|
D|----------------------------------------------------|
A|----------------------------------------------------|
E|--7----10-(10)--9----10--11----10-11-(11)--12----13-|
A|----------------------------------------------------|
five five five  im six six six

B|----------------------------------------------------|
F|----------------------------------------------------|
D|--9---12-(12)-11--12----13--12--13-(13)---14--15----|
A|----------------------------------------------------|
E|----------------------------------------------------|
A|----------------------------------------------------|
five five five im six  six  six 

B|---------------------------------------------------------------------------|
F|---------------------------------------------------------------------------|
D|-9--12-(12)-11--12---13---12-13-(13)---------------------------------------|
A|-------------------------------------12/-0---------------------------------|
E|-----------------------------------------0---------------------------------|
A|---------------------------------------------------------------------------|
five five five im six six six

the outro is all riffs from the choruses......if you can play whats written here
 you can guess the order of the rest....good luck all you maggots!
===============================================================================

Comments