Slipknot - Get This Chords & Tabs

 

Get This Chords & Tabs

Slipknot Chords & Tabs

Version: 2 Type: Tab 0 ratings
1 star 2 stars 3 stars 4 stars 5 stars
comments

Get This Tab

Artist: Slipknot
Song: Get This
Album: Slipknot Digipack

This is my first tab and I'm doing it from memory so bear with me.

Dropped B tuning.

Intro after "Gimme a scream Corey!"

------------------------------
------------------------------
------------------------------
-------------------------0----
-------------------------0----
-1-4-0-1-4-0-1-4-0-1-4-0-0----

Verse
----------------------
----------------------
----------------------
(0)-(1)-(4)-----------
-0---1---4------------
-0---1---4------------

Chorus
-------------------
-------------------
-------------------
-3-4-4-------------
-3-4-4-4-----------
-3-4-4---4-3-2-0---
"Local bands: Suck these nuts!"

Interlude thingy (the "Don't berate me 'cause you can't stop me!")
-------------------
-------------------
-------------------
-------------------  Tremolo pick (not really all that sure about this part)
-------------------
-0-1-4-3-5-6-7-----    
[ Tab from: http://www.guitartabs.cc/tabs/s/slipknot/get_this_tab_ver_2.html ]
"Hate mother f*cker hate mother f*cker hate!"
--------------------
--------------------
--------------------
-0----0----0--------
-0----0----0--------
-0----0----0--------

--------------------
--------------------
--------------------
--------------------
-----2-3-2-----2-3-2     Trem pick the 2-3-2's
--3^--------3^------

"Life's so sh*tty, but ain't it f*ckin' great?!"
----------------------
----------------------
----------------------
----------------------
-0--4--1--------------
-0--4--1--------------

"Get this or die, get this or die."
-----------------------
-----------------------
-----------------------
-----------------------
-0-0-0-----------------
-0-0-0-----------------
PM.....

Last bit of the final chorus
-----------------------
-----------------------
-----------------------
-----------------------
-------4--------------- Tremelo pick
-3-4-4---4-3-2-0-------


That's it, don't have the form but all the parts are pretty easy to hear,
so you should be able to figure it out.

Any comments/questions/corrections, just post them.
Comments