Slipknot - Gently Chords & Tabs

 

Gently Chords & Tabs

Slipknot Chords & Tabs

Version: 1 Type: Tab 0 ratings
1 star 2 stars 3 stars 4 stars 5 stars
comments

Gently Tab

Title     : Gently
Artist    : Slipknot
Album     : Mate, Feed, Kill, Repeat
Tabbed By : Jo Lefebure (whipy@hotmail.com)

Tune down one whole step then drop D

Intro :

e|---------1p0--------------0------------------------------------|
b|-----3-------3--------3-----3---3------------------------------|
g|---2---2-------2----3---3-----3---------3---3---3---3---2~~~---|
d|-0------------------------------------2------------------------|
a|------------------1-----------------0-----0---0---0---0------0-|
d|---------------------------------------------------------------|

e|---------4h5--------8p6-------6--------------------------------|
b|---5h6-------6----------6---6---6------------------------------|
g|---------------7----------7-------------3---3---3---3---2~~~---|
d|-0-----0----------0-------------------2------------------------|
a|------------------------------------0-----0---0---0---0------0-|
d|---------------------------------------------------------------|

(0:13) here the delay kicks in

e|---------1p0--------------0------------------------------------|
b|-----3-------3--------3-----3---3------------------------------|
g|---2---2-------2----3---3-----3---------3---3---3---3---2~~~---|
d|-0------------------------------------2------------------------|
a|------------------1-----------------0-----0---0---0---0------0-|
d|---------------------------------------------------------------|

e|---------4h5--------8-6h8p6-------6-------------------------------|
b|---5h6-------6--------------6---6---6-----------------------------|
g|---------------7--------------7------------3---3---3---3---2~~~---|
d|-0-----0----------0----------------------2------------------------|
a|---------------------------------------0-----0---0---0---0------0-|
d|------------------------------------------------------------------|

(0:27) here the drum kicks in; repeat everything with this over it :

e|----------------------------------------------|
b|----------------------------------------------|
g|----------------------------------------------|
d|---------------------0~~~---------------------|
a|---------------------0~~~---------------------|
d|---0~~~--0--2--3~~~---------------------------|

(0:53) play this riff 4 times
[ Tab from: http://www.guitartabs.cc/tabs/s/slipknot/gently_tab.html ]
e|---------1p0---0----------3----------------0----------0------0-----|
b|-----3-------3--------1-----1---1------1-----1---3------3------3---|
g|---2---2------------2---2-----2------0---0-----0----------0------0-|
d|-0----------------3------------------------------------------------|
a|-----------------------------------3----------------1-------3------|
d|-------------------------------------------------------------------|

(1:20) distortion !

e|-----|
b|-----|
g|-----|
d|-0~~-|
a|-0~~-|
d|-0~~-|

(1:46) play this twice

e|--------------------------------------------------|
b|--------------------------------------------------|
g|--------------------------------------------------|
d|-0~~--8~~-X-X-8\7~~-------------------------------|
a|-0~~--8~~-X-X-8\7~~-/slide up & down this string\-|
d|-0~~--8~~-X-X-8\7~~-------------------------------|

(2:00) figure this out for yourself only the dampening is different
(2:07)

e|---------------------------------------------|
b|---------------------------------------------|
g|---------------------------------------------|
d|-1-1-1-etc--8~~-10~~--7--5--8~~--------------|
a|-1-1-1-etc--8~~-10~~--7--5--8~~--8p5---------|
d|-1-1-1-etc--8~~-10~~--7--5--8~~------7h8-1~~-|

the section (2:00 - 2:13) is played twice then the following :

(2:27) play this twice

e|------------------------------|
b|------------------------------|
g|-7~~--7/10-10-10~~-10\9~~\5~~-|
d|-7~~--7/10-10-10~~-10\9~~\5~~-|
a|-5~~--5/8--8--8-~~-8-\7~~\3~~-|
d|------------------------------|

(2:40) then this once

e|-----------------------------|
b|-----------------------------|
g|-10~~-10/14~~-14-14\12~~\9~~-|
d|-10~~-10/14~~-14-14\12~~\9~~-|
a|-8-~~-8-/12~~-12-12\10~~\7~~-|
d|-----------------------------|

(2:47) then this once, then FINALLY the singing comes in

e|-------------------------------------------------------|
b|-------------------------------------------------------|
g|-7~~-7/10-10~~-10\9~~----------------------------------|
d|-7~~-7/10-10~~-10\9~~--/slide up & down these strings\-|
a|-5~~-7/8--8-~~-8-\7~~----------------------------------|
d|-------------------------------------------------------|

(3:14) play the (1:46) riff and next again 3 times

(3:53) play this riff twice then add a second guitar playing the same :

e|---------------------------|
b|---------------------------|
g|---------------------------|
d|-0-0-0-3~~-0-4-3-1~~-0-1-0-|
a|-0-0-0-3~~-0-4-3-1~~-0-1-0-|
d|-0-0-0-3~~-0-4-3-1~~-0-1-0-|

(4:29)                         (4:37)

e|-------------|---repeat n--|---------|
b|-------------|----times----|---------|
g|-------------|o-----------o|---------|
d|-0-0-0-0-3~~-|o-0-0-0-3~~-o|-3-1-3-1-|
a|-0-0-0-0-3~~-|--0-0-0-3~~--|-3-1-3-1-|
d|-0-0-0-0-3~~-|--0-0-0-3~~--|-3-1-3-1-|

after that it's back to the (3:53) riff; repeat that whole section
once more until the end...


THERE !!! that took me like two hours to tab out and im pretty tired now
cu all for my next tabs
greetz !

WHIPLASH

Comments