Slipknot - Eyeless Chords & Tabs

 

Eyeless Chords & Tabs

Slipknot Chords & Tabs

Version: 9 Type: Tab 0 ratings
1 star 2 stars 3 stars 4 stars 5 stars
comments

Eyeless Tab

slipknot
eyeless


Mick 0:07 ? 0:32                              (10x)
-12-12-12----12?----12-12-12-12-12-12-12-12-12-12--
----------16----16--16-16-16-16-16-16-16-16?16-16--
---------------------------------------------------
---------------------------------------------------
---------------------------------------------------
---------------------------------------------------

James 0:12 - 0:13     0:15 - 0:16           0:17 - 0:32              (6x)
--------------------  --------------------  -----------------------------
--------------------  --------------------  -----------------------------
--------------------  --------------------  -----------------------------
--------------------  --------------------  --------------------------1--
-------2---1--------  -------2---1--------  ------2---1---------2---1----
-0-0-3---3---2-0-0--  -0-0-3---3---2-0-0-- -0-0-3---3---2-0-0-0---0------
 - -           - -     - -           - -    - -           - - -   -



Mick & James 0:32 - 0:41    (4x)  0:41 - 0:49 (3x)    
--------------------------------  --------------- 
--------------------------------  ---------------  
--------------------------------  --------------- 
--------------------------------  ---------------  
-------2---2-3-----5-6-----6-8--  ------2---2-3--  
-0-0-0-2-0-2-3-0-0-5-6-0-0-6-8--  --0-0-2-0-2-3--  



Mick & James 0:51 - 1:00    (4x)  1:00 - 1:08 (4x)    1:09 - 1:19              (4x)
--------------------------------  ---------------  --------------------------------  
--------------------------------  ---------------  --------------------------------
--------------------------------  ---------------  --------------------------------
--------------------------------  ---------------  --------------------------------
-------2---2-3-----5-6-----6-8--  ------2---2-3--  -------2---2-3-----5-6-----6-8--
-0-0-0-2-0-2-3-0-0-5-6-0-0-6-8--  --0-0-2-0-2-3--  -0-0-0-2-0-2-3-0-0-5-6-0-0-6-8--


Mick & James 1:19 - 1:27   4x)     
------------------------------    
------------------------------  
------------------------------  
-3-3-3--3-3-3-3-3-3-3--3-3-3--  
-2-2-2--2-2-2-2-2-2-2--2-2-2--  
------------------------------  



Mick 1:28 ? 1:38                                (4x)
-12-12-12----12?----12-12-12-12-12-12-12-12-12-12--
----------16----16--16-16-16-16-16-16-16-16?16-16--
---------------------------------------------------
---------------------------------------------------
---------------------------------------------------
---------------------------------------------------


James 1:33 - 1:34     1:35 - 1:38                     
--------------------  ------------------------------  
--------------------  ------------------------------  
--------------------  ------------------------------  
--------------------  ---------------------------1--  
-------2---1--------  -------2---1---------2---1----  
-0-0-3---3---2-0-0--  -0-0-3---3---2-0-0-0---0------  
 - -           - -     - -           - - -   -

[ Tab from: http://www.guitartabs.cc/tabs/s/slipknot/eyeless_tab_ver_9.html ]
Both 1:38 - 1:46  (4x)  1:47 - 1:56               (4x)
----------------------  ------------------------------  
----------------------  ------------------------------
----------------------  ------------------------------
----------------------  ------------------------------
-----2---2-3----------  -----2---2-3-----5-6-----6-8--
-0-0-2-0-2-3----------  -0-0-2-0-2-3-0-0-5-6-0-0-6-8--


Mick & James 1:56 - 2:05  (4x)  2:05 - 2:17          (5x)  2:17 - 2:19 
------------------------------  -------------------------  -----------
------------------------------  -(Bend the 3 as far as --  -----------
------------------------------  ---you can and release)--  -----------
-3-3-3--3-3-3-3-3-3-3--3-3-3--  -------------------------  -----------
-2-2-2--2-2-2-2-2-2-2--2-2-2--  -----------0-1-2--0-1-2--  -----------
------------------------------  -0-0-0-3b--0-1-2--0-1-2--  -0-0-0-3b--


Both 2:19 - 2:27    (3x)   2:27 - 2:28  2:29 - 2:36          (3x)
-------------------------  -----------  -------------------------  
-------------------------  -----------  -------------------------  
-------------------------  -----------  -------------------------  
-------------------------  -----------  -------------------------  
-----------0-1-2--0-1-2--  -----------  -----------0-1-2--0-1-2--  
-0-0-0-3b--0-1-2--0-1-2--  -0-0-0-3b--  -0-0-0-3b--0-1-2--0-1-2--  



Both 2:36 - 2:39     (1x)  2:39 - 3:07                                  (12x)
-------------------------  -12-12-12----12----12-12-12-12-12-12-12-12-12-12--
-------------------------  ----------16----16-16-16-16-16-16-16-16-16-16-16--
-------------------------  --------------------------------------------------
-------------------------  --------------------------------------------------
-------------------------  --------------------------------------------------
-0-0-0-3b--0-0-0--0-0-0--  --------------------------------------------------

                           2:39 - 2:56     (4x)  2:58 - 3:05             (2x)
                           --------------------  ----------------------------   
                           --------------------  ----------------------------
                           --------------------  ----------------------------
                           --------------------  ----------------------------
                           --------------------  ----------------------------
                           -0-----4-----1--2---  0tp-----4tp-----1tp---2tp---
                                                 P.M.    P.M.    P.M.  P.M. 


Both 3:07 - 3:14     (3x)  3:15 - 3:16  3:17 - 3:24          (3x)  3:25 - 3:26
-------------------------  -----------  -------------------------  -----------
-------------------------  -----------  -------------------------  -----------
-------------------------  -----------  -------------------------  -----------
-------------------------  -----------  -------------------------  -----------
-----------0-1-2--0-1-2--  -----------  -----------0-1-2--0-1-2--  -----------
-0-0-0-3b--0-1-2--0-1-2--  -0-0-0-3b--  -0-0-0-3b--0-1-2--0-1-2--  -0-0-0-3b--


Both 3:32 - 3:55   (8x)    
-------------------------  
-------------------------  
-------------------------  
-------------------------  
-----------0-1-2--0-1-2--  
-0-0-0-3b--0-1-2--0-1-2--
Comments