Slipknot - Eyeless Chords & Tabs

 

Eyeless Chords & Tabs

Slipknot Chords & Tabs

Version: 11 Type: Tab 0 ratings
1 star 2 stars 3 stars 4 stars 5 stars
comments

Eyeless Tab

   
This song is fairly easy. If you've heard the song, u don't really have 
To listen to it. I"m pretty sure this is 100% correct concidering i played with the cd
for like 3 weeks before i tabbed it but, if u got complaints or anything email me at
NickIorfida@msn.com. Enjoy the tab and STAY (SIC) MAGGOTS!!!

TUNING: B, F#, B, E, G#, C#

Palm mute: _ under note

Pick slide: repeated ///////////

Regular slide: /

Intro (gtr 1) comes in after drum fill (12s and 16s)
C#------12-12-12----12----12121212121212121212-------------------|
G#---------------16----16-16161616161616161616-------------------|
E-------------------------------------------------10x------------|
B----------------------------------------------------------------|
F#---------------------------------------------------------------|
B----------------------------------------------------------------|

Intro gtr 2 (interrupts after 2 times of gtr ones riff)
C#------------------|--------------------------------------------|
G#---part-one-------|--------------------------------------------|
E-----------------2x|--------------------4x----------------------|
B------------00-----|-----------------1--------------------------|
F#-------2-1-00-----|-------2-1---2--1---------------------------|
B---000-3-2--00-----|--000-3-2-000-00----------------------------|
    ---      --        ---     --- --

Riff1/chorus both
C#---------------------------------------------------------------|
G#---------------------------------------------------------------|
E----------------------------4x----------------------------------|
B---000-3-00-23-00-56-00-68--------------------------------------|
F#--000-3-00-23-00-56-00-68--------------------------------------|
B---000-3-00-23-00-56-00-68--------------------------------------|

Verse both
C#---------------------------------------------------------------|
G#---------------------------------------------------------------|
E---------------4x-----------------------------------------------|
B---000-3-00-23--------------------------------------------------|
F#--000-3-00-23--------------------------------------------------|
B---000-3-00-23--------------------------------------------------|


Interlude both
C#---------------------------------------------------------------|
G#---------------------------------------------------------------|
E-------------16x------------------------------------------------|
B------222-------------------------------------------------------|
F#-----333-------------------------------------------------------|
B----------------------------------------------------------------|

Gtr 1 part 2
C#------12-12-12----12----12121212121212121212-------------------|
G#---------------16----16-16161616161616161616-------------------|
E-------------------------------------------------4x-------------|
B----------------------------------------------------------------|
F#---------------------------------------------------------------|
B----------------------------------------------------------------|
[ Tab from: http://www.guitartabs.cc/tabs/s/slipknot/eyeless_tab_ver_11.html ]
Gtr 2 part 2
C#---------------------------------------------------------------|
G#---------------------------------------------------------------|
E----------------------------------------------------------------|
B------------00--------------------1-----------------------------|
F#-------2-1-00----------2-1---2--1------------------------------|
B---000-3-2--00-----000-3-2-000-00-------------------------------|
    ---      --        ---     --- --

Riff 2 both           (part 1)
C#--gtr-1----------------|-gtr-2---------------------------------|
G#-----------------------|---------------------------------------|
E----------------------2x|---------1st-time-------------2nd-time-|
B---000----000-1-00-1----|----000-----------000-1-00-1-----------|
F#--000----000-1-00-1----|----000-----------000-1-00-1-----------|
B---000-7/-000-1-00-1----|----000-----------000-1-00-1-----------|

Part 2 gtr 1   (play whole thing 3 times)
C#------------------------|--------------------------------------|
G#------------------------|-----------listen---------------------|
E-----------------------3x|--------------------1x----------------|
B-----000----000-1-00-1---|--000---------------------------------|
F#----000----000-1-00-1---|--000---------------------------------|
B-----000-7/-000-1-00-1---|--000-7//////7///7//7//7//7-----------|


Part 2 gtr 2    (play whole thing 3 times)
C#------------------------|--------------------------------------|
G#------------------------|--------------------------------------|
E-----------------------3x|------x1------------------------------|
B---000------00-1-00-1----|-000----------------------------------|
F#--000------00-1-00-1----|-000----------------------------------|
B---000--7/--00-1-00-1----|-000----------------------------------|

Bridge gtr 1
C#------12-12-12----12----12121212121212121212-------------------|
G#---------------16----16-16161616161616161616-------------------|
E-------------------------------------------------12x------------|
B----------------------------------------------------------------|
F#---------------------------------------------------------------|
B----------------------------------------------------------------|

Gtr2 Bridge
C#---------------------------------------------------------------|
G#--listen-for---------------------------------------------------|
E---timing------6x-----------------------------------------------|
B----------------------------------------------------------------|
F#---------------------------------------------------------------|
B----0-4-1-2-----------------------------------------------------|


Outro (both) this part is played much slower than 
the other part that is almost identical to it
C#---------------------------------------------------------------|
G#---------------------------------------------------------------|
E----------------------------------------------------------------|
B---000------00-11-00-1------------------------------------------|
F#--000------00-11-00-1------------------------------------------|
B---000--7/--00-11-00-1------------------------------------------|





Order of parts 
Intro
Riff one
Verse
Chorus
Verse
Chorus 
Interlude (all parts)
Verse
Chorus
Riff 2 (all parts)
Bridge
Riff 2 part 2
Outro

That's it douches have fun!
Comments