Slipknot - Eyeless Chords & Tabs

 

Eyeless Chords & Tabs

Slipknot Chords & Tabs

Version: 1 Type: Tab 0 ratings
1 star 2 stars 3 stars 4 stars 5 stars
comments

Eyeless Tab

   
Slipknot Eyeless
	Email= Viicloud100@collegeclub.com
	Drop D Tuning, Down Additional 1 1/2 steps (B,F#,B,E,G#,C#)
	
		Song Set In 4/4 Time All The Way Through
		*=Palm Mute #b^=bend, Specified number of steps underneath bend


Riff A	|-12-12-12--12---12-12-|-12-12-12-12-12-12-12-12--|
	|---------16--16-16-16-|-16-16-16-16-16-16-16-16--|
	|----------------------|--------------------------|
	|----------------------|--------------------------|
	|----------------------|--------------------------|
	|----------------------|--------------------------|

Riff B	|----------------------|--------------------------|
	|----------------------|--------------------------|
	|----------------------|--------------------------|
	|----------------------|--------------------------|
	|-------------2---1----|--------------------------|
	|-----0-0-0-3---3---2--|-0-0----------------------|
	      * * *              * *

Riff C 	|----------------------|--------------------------|
	|----------------------|--------------------------|
	|----------------------|--------------------------|
	|----------------------|---------------1----------|
	|-------------2---1----|-------2-----1------------|
	|-----0-0-0-3---3---2--|-0-0-0---0-0--------------|
	      * * *              * * *   * *

Riff D	|----------------------|--------------------------|
	|----------------------|--------------------------|
	|----------------------|--------------------------|
	|----------------------|--------------------------|
	|---------3---2-3------|-----5-6-----6-8----------|
	|-0-0-0-0-3-0-2-3------|-0-0-5-6-0-0-6-8----------|

Riff E	|----------------------|--------------------------|
	|----------------------|--------------------------|
	|----------------------|--------------------------|"note:measure of
	|----------------------|--------------------------| rest is part of
	|---------3---2-3------|--------------------------| the riff"
	|-0-0-0-0-3-0-2-3------|-----REST 1 MEASURE-------|

Riff F	|----------------------|
	|----------------------|
	|----------------------|
	|-3-3-3--3-3-3-3-------|
	|-2-2-2--2-2-2-2-------|
	|----------------------|

Riff G	|----------------------|--------------------------|
	|----------------------|--------------------------|
	|----------------------|--------------------------|
	|----------------------|--------------------------|
	|-0-0-0----------------|-0-0-1-0-0-1--------------|
	|-0-0-0-3b^------------|-0-0-1-0-0-1--------------|
		1,1/2
[ Tab from: http://www.guitartabs.cc/tabs/s/slipknot/eyeless_tab.html ]
Riff H	|----------------------|--------------------------|
	|----------------------|--------------------------|
	|----------------------|--------------------------|
	|----------------------|--------------------------|
	|-0-0-0----------------|--------------------------|
	|-0-0-0-3b^------------|--------------------------|
		1,1/2======================================
		w/wah wah on the "3" and then back off

Riff I	|----------------------|--------------------------|--------|-----------------|
	|----------------------|--------------------------|--------|-----------------|
	|----------------------|--------------------------|--------|-----------------|
	|----------------------|--------------------------|--------|-----------------|
	|----------------------|--------------------------|--------|-----------------|
	|-0--------------------|-4------------------------|-1----2-|---(2)-----------|
	  ====================   ========================   ===  ==================

Riff J	|----------------------|-------------------------|
	|----------------------|-------------------------|
	|----------------------|-------------------------|
	|----------------------|-------------------------|
	|----------------------|-------------------------|
	|-0-0-0-0-0-0-0-0------|-4-4-4-4-4-4-4-4---------|
	  * * * * * * * *        * * * * * * * *
Riff J
(Cont)	|----------------------|-------------------------|
	|----------------------|-------------------------|
	|----------------------|-------------------------|
	|----------------------|-------------------------|
	|----------------------|-------------------------|
	|-1-1-1-1-2-2-2-2------|-2-2-2-2-2-2-2-2---------|
          * * * * * * * *        * * * * * * * *

Riff Order

	
	--------Gtr.1 Riff A 2x      |
        --------Gtr.1 Riff A 2x      |
		Gtr.2 Riff B 2x      |>Intro
	--------Gtr.1 Riff A 6X      |
		Gtr.2 Riff C 6x      |
	
	--------Gtr.1 and.2 Riff D 4x|
	--------Gtr.1 and.2 Riff E 4x|>Verse 1
	--------Gtr.1 and.2 Riff D 4x|
	--------Gtr.1 and.2 Riff F 8x|

	--------Gtr.1 Riff A 2x	     |
	--------Gtr.1 Riff A 1X      |
		Gtr.2 Riff B 1x      |>Break
	--------Gtr.1 Riff A 1x      |
		Gtr.2 Riff C 1x      |

	--------Gtr.1 and.2 Riff E 4x|
	--------Gtr.1 and.2 Riff D 4x|>Verse 2
	--------Gtr.1 and.2 Riff F 8x|

	--------Gtr.1 Riff G 2x	     |
	--------Gtr.1 and.2 Riff G 2x|	
	--------Gtr.1 Riff H 1x      |>Bridge
	--------Gtr.1 and.2 Riff G 3x|
	--------Gtr.1 Riff H 1x      |
	--------Gtr.1 and.2 Riff G 4x|

	--------Gtr.1 Riff I 4x	     |
		Gtr.2 Riff A 8x      |
	--------Gtr.1 Riff J 1x	     |>Interlude
	--------Gtr.1 Riff J 1x (No*)|
	
	--------Gtr.1 and.2 Riff G 3x|
	--------Gtr.1 Riff H 1x      |
	--------Gtr.1 and.2 Riff G 4x|
	--------Gtr.1 and.2 Riff G.5x|>Bridege Slower
	        Only 2nd Half Riff G |
	--------Gtr.1 and.2 Riff G 8x|

		Sorry Guys If This Is Confusing I Tried To Make It as Clear as Possible,
		My E-mail is at the top of the page
	

Comments